Oops, an error
Loading. Please wait.

Work Bass Tab

version 1
version 1

Whole song

Interactive

4,328 views 1 this week
no commentswrite comment
1 2 3 4 5
please rate
add to favorites
launch autoscroll
font size
0
reset
guitar tuner
Tab Pro tools
  • play this tab
  • loop segment
  • change instrument
  • show fretboard
  • metronome
×
Best way to learn
"Work"
Autoscroll
slow
fast
+/-
esc
set tempo
stop
Contributor
Jimmy Eat World – Futures - Work

Tuning : drop C# / drop Db

Please Rate

(if anyone wants this tab in standard tuning just gimme a message)

Here is the guitar intro if you want to play it before the bass comes in

G |----------------------------------|
D |-------6--------6-----6---6---6---|
A |---3-4--------4-----6---6---6---6-|
C#|-4--------0-7-----7---------------|


Verse (0:24)

G |----------------------------------|
D |----------------------------------| 
A |----------------------------------| x4
C#|-4-4~----0-0~----7-7~-------------|

Pre-verse (0:40)

G |----------------------------------|
D |----------------------------------| 
A |----------------------------------|
C#|---------000000004444444400000000-|

Chorus (0:50)

G |----------------------------------|
D |----------------------------------| 
A |----------------------------------|
C#|-777777772222222244444444-777-000-|

Post-chorus (0:58)

G |----------------------------------|
D |----------------------------------| 
A |----------------------------------| x2
C#|-4-4~----0-0~----7-7~-------------|

Verse (1:05)

G |----------------------------------|
D |----------------------------------| 
A |----------------------------------| x8
C#|-4-4-4-4-0-0-0-0-7-7-7-7-7-7-7-7--|

Pre-chorus (1:39)

G |----------------------------------|
D |----------------------------------| 
A |----------------------------------|
C#|---------000000004444444400000000-|

Chorus (1:48)

G |----------------------------------|
D |----------------------------------| 
A |----------------------------------|
C#|-77777777222222224444444400000000-|

G |----------------------------------|
D |----------------------------------| 
A |----------------------------------|
C#|-77777777222222224444444477777000-|

Post - Chorus (2:04)

G |----------------------------------|
D |----------------------------------| 
A |----------------------------------| x4
C#|-4-4-4-4-0-0-0-0-7-7-7-7-7-7-7-7--|

Or (2:04) Guitar Solo on bass

G |--------------------------------------------------------|
D |---------------------------------------------------6----|
A |-6-6-6-6-6-4-3-4-3---------6-6-6-6-6-8-6-8-6-4-3-4---6--|
C#|-------------------7-6-7-9------------------------------|

G |-8-8-8-8-8-6-5-6-8-8-8-8-8-6-5-6-5-------------------------|
D |-----------------------------------6-5-6-8-6-8-6-5-6-5-----|
A |-------------------------------------------------------8-6-|
C#|-----------------------------------------------------------|

Pause

Pre-chorus (2:37)

G |----------------------------------|
D |----------------------------------| 
A |----------------------------------|
C#|-44--44--0000000044--44--00000000-|

Chorus (2:45)

G |----------------------------------|
D |----------------------------------| 
A |----------------------------------|
C#|-77777777222222224444444400000000-|

G |----------------------------------|
D |----------------------------------| 
A |----------------------------------|
C#|-777777772222222244444444-777-000-|

Ending (3:03)

G |----------------------------------|
D |----------------------------------| 
A |----------------------------------|
C#|-4-4~----0-0~----7-7~-------------|

G |----------------------------------|
D |----------------------------------| 
A |----------------------------------|
C#|-4-4~----0-0~----7~---------------|

comments
We did not receive enough feedback on this tab! Please rate:
print report bad tab
1 2 3 4 5
I want to post or [tab]
guest
You may want to rate the tab now too:
select rating
Please do not post tabs as comments. Select "correction" instead!