Oops, an error
Loading. Please wait.

Work Tab

version 2
version 2

Whole song

Interactive

69,023 views 108 this week
18 commentsread comments
1 2 3 4 5
excellent!
x 43
add to favorites
launch autoscroll
font size
0
reset
how to read this tab
guitar tuner
Autoscroll
slow
fast
+/-
esc
set tempo
stop
Help us to improve Ultimate-Guitar.com Take our survey!
×
Author
Tuning: down 1/2 step and drop D tuning or C#


[Intro/Verse]

e|---------------------------------------------------------------------------|
B|---------------------------------------------------------------------------|
G|-------2--------2-----2---2---2--------------------------------------------|
D|-----0--------0-----2---2---2---2------------------------------------------|
A|---4--------0-----0--------------------------------------------------------|
E|-4--------0----------------------------------------------------------------|


[Verse]

 (comes in during "dont think were not serious")
e|---5---5---5---5---5---5---------------------------------------------------|
B|-5---5---5---5---5---5---5-------------------------------------------------|
G|---------------------------------------------------------------------------|
D|---------------------------------------------------------------------------|
A|---------------------------------------------------------------------------|
E|---------------------------------------------------------------------------|

[Pre-Chorus]

e|---------------------------------------------------------------------------|
B|---------------------------------------------------------------------------|
G|--------7------------------------------------------------------------------|
D|-4------7------------------------------------------------------------------|             
A|-4(x8)--0(x8)--------------------------------------------------------------|
E|-4------0------------------------------------------------------------------|


[Chorus 1]

 (rythym)
e|---------------------------------------------------------------------------|
B|---------------------------------3-----------------------------------------|
G|-2-----------------------2-------2-----------------------------------------|
D|-2(x8)---2-------4-------2(x3)---0(x3)-------------------------------------|
A|-0-------2(x8)---4(x8)---0-------0-----------------------------------------|
E|---------2-------4---------------0-----------------------------------------|


[Chorus 1]

 (lead)
e|---------------------------------------------------------------------------|
B|---------------------------------------------------------------------------|
G|-18------16-------14---------14------19------------------------------------|
D|-X-(x8)--X-(x8)---X-(x8)-----X(x3)---X(x3)---------------------------------|
A|-16------14-------12---------12------17------------------------------------|
E|---------------------------------------------------------------------------|

Verse 2 is the same as 1 but the first two lines only the bass plays


[Chorus 2]

 (rythym)
e|---------------------------------------------------------------------------|
B|---------------------------------------------------------------------------|
G|-2-------------------------------------------------------------------------|
D|-2(x8)--2-------4------0---------------------------------------------------|
A|-0------2(x8)---4(x8)--0(x8)-----------------------------------------------|
E|--------2-------4------0---------------------------------------------------|
2nd time is same as chorus 1


[Chorus 2]

 (lead)
e|---------------------------------------------------------------------------|
B|---------------------------------------------------------------------------|
G|-18-------16------14------7------------------------------------------------|
D|-X-(x8)---X-(x8)--X(x8)---X-(x8)-------------------------------------------|
A|-16-------14------12------5------------------------------------------------|
E|---------------------------------------------------------------------------|
2nd time is same as chorus 1


[Solo]

e|---------------------------------------------------------------------------|
B|-----------------------------------------------------10--------------------|
G|-9-9-9-9-9-7-6-7-6---------9-9-9-9-9-11-9-11-9-7-6-7----9------------------|
D|-------------------7-6-7-9-------------------------------------------------|
A|---------------------------------------------------------------------------|
E|---------------------------------------------------------------------------|

e|-12-12-12-12-12-10-9-10-12-12-12-12-12-10-9-10-9---------------------------|
B|------------------------------------------------10-9-10-12-10--------------|
G|---------------------------------------------------------------------------|
D|---------------------------------------------------------------------------|
A|---------------------------------------------------------------------------|
E|---------------------------------------------------------------------------|

e|---------------------------------------------------------------------------|
B|-12-10-9-10-9--------------------------------------------------------------|
G|---------------11-9--------------------------------------------------------|
D|---------------------------------------------------------------------------|
A|---------------------------------------------------------------------------|
E|---------------------------------------------------------------------------|


[Verse 3]
(same as 1)


[Pre-Chorus]

e|---------------------------------------------------------------------------|
B|---------------------------------------------------------------------------|
G|-------------7-------------14-14--------14-13-----7------------------------|
D|-4-4---4-4---7--------4-4--X--X----4-4--X--X------7------------------------|              
A|-4-4---4-4---0(x8)----4-4--12-12---4-4--12-11-----0(x8)--------------------|
E|-4-4---4-4---0--------4-4----------4-4------------0------------------------|


[Chorus 3] 
(same as chorus 2)


[Verse Riff]
(fade out)

Well that sounds good to me any questions or comments put them in the comment box or
email me at snoutman928@yahoo.com


************************************

| X dead note

************************************
Suggest correction
comments
print report bad tab
18 comments total. Showing first comments.
0 reply
Silum 30 wrote on February 19 2005, 12:00 am

nice job man

0 reply
lp_soldier200 10 wrote on March 5 2005, 12:00 am

is every string down 1/2 step or just E

+1 reply
Slash99 91 wrote on April 7 2005, 12:00 am

nice but on the
5-5-5-5-5-5-5-5-5-5-5-5-4~~~~
-5-5-5-5-5-5-5-5-5-5-5-5
make sure you bend the 4th fret for that sound

guest
You may want to rate the tab now too:
select rating
Please do not post tabs as comments. Select "correction" instead!