Oops, an error
Loading. Please wait.

Prelude Tab

8,044 views 6 this week
no commentswrite comment
1 2 3 4 5
excellent!
x 5
add to favorites
launch autoscroll
font size
0
reset
how to read this tab
guitar tuner
Tab Pro tools
  • play this tab
  • loop segment
  • change instrument
  • show fretboard
  • metronome
×
Best way to learn
"Prelude"
Autoscroll
slow
fast
+/-
esc
set tempo
stop
Contributor
So this is it, note for note. Beautiful rendition of a beautiful piece.



E{|--7--------------|------------------|------------------|-----------------|
B{|---x------10b12v-|--11b13---10b12v--|--11b13---10b12v--|--11b13--10b12v--|
G{|----7------------|------------------|------------------|-----------------|
D{|-----9-----------|------------------|------------------|-----------------|
A{|-----------------|------------------|------------------|-----------------|
E{|-----------------|------------------|------------------|-----------------|


|----------------|---------------------------------|----------|------------|
|--11--10b11r10--|--10b12--10b12--10b12--10b12r10--|-10b12r10-|--10b12r10--|
|----------------|---------------------------------|----------|------------|
|----------------|---------------------------------|----------|------------|
|----------------|---------------------------------|----------|------------|
|----------------|---------------------------------|----------|------------|


|--------7----8b10r8-------|--------------------|--8b10---7h8p7v-----|
|--8b10--------------------|-------8--7---------|--------------------|
|--------------------------|--7/9--------9--8v--|--------------------|
|--------------------------|--------------------|--------------------|
|--------------------------|--------------------|--------------------|
|--------------------------|--------------------|--------------------|

|----------|-----------------------------------------|-----------------|
|--8b10r8--|------------7----8--10--10p8p7--8b10r8v--|--10b12--10b12v--|
|----------|---------8-------------------------------|-----------------|
|----------|--10--9----------------------------------|-----------------|
|----------|-----------------------------------------|-----------------|
|----------|-----------------------------------------|-----------------|


|-----------------|-----------------|-----------|---------------------------|
|--11b13--10b12v--|--11b13--10b12v--|-(12)-10v--|--10--12--13p12p10--13b15--|
|-----------------|-----------------|-----------|---------------------------|
|-----------------|-----------------|-----------|---------------------------|
|-----------------|-----------------|-----------|---------------------------|
|-----------------|-----------------|-----------|---------------------------|

|------------|------------|
|--10b12r10--|--10b12r10--|
|------------|------------|
|------------|------------|
|------------|------------|
|------------|------------|

|--------7-----------------|--------------------|---------------------------|
|--8b10-----13b15r13-------|-------8--7---------|--8b10--8b10--8--8b10r8p7v-|
|--------------------------|--7/9--------9--8v--|---------------------------|
|--------------------------|--------------------|---------------------------|
|--------------------------|--------------------|---------------------------|
|--------------------------|--------------------|---------------------------|


|---------------------------|---------------------------------------------|
|--13b15--13b15--15r13p12v--|--12h15p12--15p12--15b17r15p13--15b17-17-17--|
|---------------------------|---------------------------------------------|
|---------------------------|---------------------------------------------|
|---------------------------|---------------------------------------------|
|---------------------------|---------------------------------------------|


|--13b15--12b14--12b14r12--|--13b15r13--12--|--15b17v--|
|--------------------------|----------------|----------|
|--------------------------|----------------|----------|
|--------------------------|----------------|----------|
|--------------------------|----------------|----------|
|--------------------------|----------------|----------|

Finale

|-------7--8--7---|--8p7---7----------------------------------------|
|-----x-----------|-----10---10p8p7---7-----------------------------|
|---7-------------|-----------------9---9p8---8---------------------|
|-9---------------|-------------------------10--10-9-7-10-9-7----9-7|
|-----------------|-------------------------------------------10----|
|-----------------|-------------------------------------------------|

|------|-----|------|-------|}
|------|-----|------|-------|}
|------|-----|------|-------|}
|------|-----|------|--7/9--|}
|--10--|--9--|--7v--|-------|}
|------|-----|------|-------|}

|-------------|----------------|--------|
|-------8--7--|----------7--5--|--------|
|-------------|------(5)-------|--------|
|--7/9--------|--5/7-----------|--7/9v--|
|-------------|----------------|--------|
|-------------|----------------|--------|
comments
print report bad tab
I want to post or [tab]
guest
You may want to rate the tab now too:
select rating
Please do not post tabs as comments. Select "correction" instead!