Oops, an error
Loading. Please wait.

Boogie In The Dark Bass Tab

1,809 views 1 this week
no commentswrite comment
1 2 3 4 5
please rate
add to favorites
launch autoscroll
font size
0
reset
guitar tuner
Autoscroll
slow
fast
+/-
esc
set tempo
stop
Help us to improve Ultimate-Guitar.com Take our survey!
×
hi, this is an old instrumental song. fun bassline too.


               "BOOGIE IN THE DARK" bass tab by Jimmy Reed

G|--------------|-------------|-------------|-------------|
D|--------------|-------------|-------------|-------------|
A|--------------|-2--2--4--2--|-------------|-2--2--4--2--|
E|---0--0--3-4--|-------------|--0--0--3-4--|-------------|

G|--------------|-------------|-------------|-------------|
D|--------------|-2--2--4--2--|-------------|-2--2--4--2--|
A|---0--0--3-4--|-------------|--0--0--3-4--|-------------|
E|--------------|-------------|-------------|-------------|

G|--------------|-------------|-------------|-------------|
D|--------------|-------------|-------------|-------------|
A|--------------|-2--2--4--2--|-------------|-2--2--4--2--|
E|---0--0--3-4--|-------------|--0--0--3-4--|-------------|
turn around:
G|--------------|-------------|-------------|-------------|
D|---4--4-------|-4--4--7--7--|--2--2-------|-2--2--4--4--|
A|---------5--5-|-------------|--------4--4-|-------------|
E|--------------|-------------|-------------|-------------|

G|--------------|-------------|-------------|-------------|
D|--------------|-------------|-------------|-------------|
A|--------------|-2--2--4--2--|-------------|-2--2--4--2--|
E|---0--0--3-4--|-------------|--0--0--3-4--|-------------|

G|--------------|-------------|-------------|-------------|
D|--------------|-------------|-------------|-------------|
A|--------------|-2--2--4--2--|-------------|-2--2--4--2--|
E|---0--0--3-4--|-------------|--0--0--3-4--|-------------|

G|--------------|-------------|-------------|-------------|
D|--------------|-2--2--4--2--|-------------|-2--2--4--2--|
A|---0--0--3-4--|-------------|--0--0--3-4--|-------------|
E|--------------|-------------|-------------|-------------|

G|--------------|-------------|-------------|-------------|
D|--------------|-------------|-------------|-------------|
A|--------------|-2--2--4--2--|-------------|-2--2--4--2--|
E|---0--0--3-4--|-------------|--0--0--3-4--|-------------|

G|--------------|-------------|-------------|-------------|
D|---4--4-------|-4--4--7--7--|--2--2-------|-2--2--4--4--|
A|---------5--5-|-------------|--------4--4-|-------------|
E|--------------|-------------|-------------|-------------|

G|--------------|-------------|-------------|-------------|
D|--------------|-------------|-------------|-------------|
A|--------------|-2--2--4--2--|-------------|-2--2--4--2--|
E|---0--0--3-4--|-------------|--0--0--3-4--|-------------|

and this is done through the whole song.

-Bert
Suggest correction
Give kudos to tab author, rate the tab!
1 2 3 4 5
comments
print report bad tab
guest
You may want to rate the tab now too:
select rating
Please do not post tabs as comments. Select "correction" instead!