Oops, an error
Loading. Please wait.

Back At The Chicken Shack Tab

28 views 3 this week
no commentswrite comment
1 2 3 4 5
2 more votes to show rating
add to favorites
launch autoscroll
font size
0
reset
how to read this tab
guitar tuner
Autoscroll
slow
fast
+/-
esc
set tempo
stop
Help us to improve Ultimate-Guitar.com Take our survey!
×
Author
-------------------------------------------------------------------------------
                             "Back At The Chicken Shack" by Jimmy Smith
-------------------------------------------------------------------------------

Album: Back At The Chicken Shack (Recorded 1960, Released '63)
Tabbed by: Tim Cardiello
Email: timcardiello@gmail.com

Version Found Here: https://www.youtube.com/watch?v=WM7flE041Uk



Count: 1    +  2  +   3  +   4  +  1     2       3     4    :

     | *       *      *      *   |  *     *       *     *    |
E|--------------------------------|-----------------(3)--------|
B|-----3-------5-----/6--6---6---6|---6---5---3-----(3)--------|
G|-----3h4-----5-----/7----7---7--|-7-----5---3h4--------------|
D|--5-------5-----5---------------|-----5---5-----5------------|
A|--------------------------------|----------------------------|
E|--------------------------------|----------------------------| x2

     | *       *      *         *    |     *         *        *      * 
E|------------------------------------|--------------------------(8)-|
B|-----8-------10----/11--11----11----|-11----11----10----8------(8)-|
G|-----8h9-----10----/12-----12----12-|----12-------10----8h9--------|
D|--10------10----10------------------|----------10----10-----10-----|
A|------------------------------------|------------------------------|
E|------------------------------------|------------------------------|

     | *       *      *      *   |  *     *       *     *    |
E|--------------------------------|-----------------(3)--------|
B|-----3-------5-----/6--6---6---6|---6---5---3-----(3)--------|
G|-----3h4-----5-----/7----7---7--|-7-----5---3h4--------------|
D|--5-------5-----5---------------|-----5---5-----5------------|
A|--------------------------------|----------------------------|
E|--------------------------------|----------------------------|

     | *   *     *    *   |  *    *     *     *       |
E|--9/10------------------|--7/8-----------------------|
B|--6/7----8--9--10-------|--4/5--6--7--8-----5---3----|
G|--6/7---------------7---|--4/5-----------5--5-5-3h4--|
D|------------------------|----------------------------|
A|------------------------|----------------------------|
E|------------------------|----------------------------|

E|-------------------|
B|------5---3--------|
G|------5---3h4------|
D|---5----5-----5----|
A|-------------------|
E|-------------------|


Chords:

     G7     C7    D7     G7    C7    D7
E|--------------------|---3---------------|
B|----8-----1-----3---|---3-----5-----7---|
G|---10-----3-----5---|---4-----3-----5---|
D|----9-----2-----4---|---3-----5-----7---|
A|---10-----3-----5---|---------3-----5---|
E|--------------------|-------------------|

     G7    C7    D7     G7    C7    D7
E|---------12----14---|---1-----0-----2---|
B|---12----11----13---|---0-----1-----1---|
G|---10----12----14---|---0-----3-----2---|
D|---12----10----12---|---0-----2-----0---|
A|---10---------------|---2-----3---------|
E|--------------------|---3---------------|

     G7    C7   D7      G7    C7    D7
E|---3-----8----10---|---7-----8----10---|
B|---3-----8----10---|---6-----8----10---|
G|---4-----9----11---|---7-----9----11---|
D|---3-----8----10---|---5-----8----10---|
A|---5----10----12---|-------------------|
E|---3-----8----10---|-------------------|


12 Bar Blues Formula:

|G7|G7|G7|G7|
|C7|C7|G7|G7|
|D7|C7|G7|G7|


Swing...


*********************************** 

| /   Slide up 
| h   Hummer-on

*********************************** 
Suggest correction
Give kudos to tab author, rate the tab!
1 2 3 4 5
comments
print report bad tab
guest
You may want to rate the tab now too:
select rating
Wanna post a correction for this tab? Suggest correction