Oops, an error
Loading. Please wait.

Public Static Final Tab

140 views 1 this week
1 commentread comment
1 2 3 4 5
2 more votes to show rating
add to favorites
launch autoscroll
font size
0
reset
how to read this tab
guitar tuner
×
Best way to learn
"Public Static Final"
Autoscroll
slow
fast
+/-
esc
set tempo
stop
----------------------------------------------------------------------------
                        PUBLIC STATIC FINAL - Jinxed
----------------------------------------------------------------------------
Tabbed by: Britt        
Email: luckyleprechaun23@hotmail.com

Tuning: Standard

This is a pretty easy song, the strumming is all pretty much down strokes, just listen
to it and you'll get it.

Intro/Verse  (Play each note 16x, 2x through)

e|------------------------------------------------------------------------|
B|------------------------------------------------------------------------|
G|------------------------------------------------------------------------|
D|------------------------------------------------------------------------|
A|-0--9--7--5-------------------------------------------------------------|
E|------------------------------------------------------------------------|

    
Pre-Chorus (4x)
e|------------------------------------------------------------------------|
B|------------------------------------------------------------------------|
G|------------------------------------------------------------------------|
D|----7-------7--------9--------9--------7--------7--------7---------7----|
A|9-9--9---9-9--9—--7-7--7---7-7--7---5-5--5---5-5--5---5-5--5---5-5--5—--|
E|------------------------------------------------------------------------|

Chorus (play each note 8x, 4x through)   and at the end of 8x play this
e|-------------------------|----------------------------------------------|
B|-------------------------|----------------------------------------------|
G|-------------------------|-----7----------------------------------------|
D|--7---7---7--------------|--7--7--7-------------------------------------|
A|--9---7---5--------------|--5--5--5-------------------------------------|
E|-------------------------|----------------------------------------------|

Verse 2 (each note 16x, 2x through)
e|------------------------------------------------------------------------|
B|------------------------------------------------------------------------|
G|------------------------------------------------------------------------|
D|-7-7-7-7----------------------------------------------------------------|
A|-0-9-7-5----------------------------------------------------------------|
E|------------------------------------------------------------------------|

Then the chorus notes keep repeating through the 3rd verse.


This is my first tab, so isn't tabbed out perfectly...but it's the major notes.
Just listen to the song for the extra little things, all of the notes are in this
general vicinity.  Any questions or corrections, email me, I might be able to help.
Suggest correction
Give kudos to tab author, rate the tab!
1 2 3 4 5
comments
print report bad tab
1 comment total.
0 reply
Rele 10 Jan 21, 2005 07:00 PM

The intro is palm-muted. Other than that the tab is pretty good.

guest
You may want to rate the tab now too:
select rating
Wanna post a correction for this tab? Suggest correction