Oops, an error
Loading. Please wait.

Buko Tab

version 1
version 1

Acoustic

15,227 views 6 this week
3 commentsread comments
1 2 3 4 5
2 more votes to show rating
add to favorites
launch autoscroll
font size
0
reset
how to read this tab
guitar tuner
Autoscroll
slow
fast
+/-
esc
set tempo
stop
Help us to improve Ultimate-Guitar.com Take our survey!
×
Author
Difficulty
Jireh Lim
Buko (Buhay Ko)
Tabbed By: naguenyong vinx
Acoustic Cover
Date: February 2 2013

============================================
This is the chords in the music video sa myx
and this tab is itinuro lang sa akin!!!
Please Rate!
============================================

Intro:
e|-7..-12--10-9----------7-7--12--10-9-----------------|
B|--------------10-12-------------------10-12-14-12-10-|
G|-----------------------------------------------------|
D|-----------------------------------------------------|
A|-----------------------------------------------------|
E|-----------------------------------------------------|

e|-7-7--12--10-9----------7-7--12--10-9--------------------------|
B|----------------10-12------------------10-12-12slide14-12-10---|
G|---------------------------------------------------------------|
D|---------------------------------------------------------------|
A|---------------------------------------------------------------|
E|---------------------------------------------------------------|

Verse: A-C#m7-Bm7-E

Naalala ko pa
Nung nililigawan pa lamang kita
Dadalaw tuwing gabi
Masilayan lamang ang iyong mga ngiti
At Ika'y sasabihan
Bukas ng alas siyete sa dating tagpuan
Buo ang araw ko
Marinig ko lang ang mga himig mo

Refrain: Bm7-C#m7(2x)-Dm

Hindi ko man alam kung nasan ka
Wala man tayong komunikasyon
Mag hihintay saiyo buong magdamag
Dahil ikaw ang buhay ko

Chorus: A-C#m-Bm-E(2x)-Bm-C#m-Bm-C#m-D-E

Kung inaakala mo
Ang pag-ibig ko ay magbabago
Itaga mo sa bato
Dumaan man ang madaming pasko
Kahit na di mo na abot ang sahig
Kahit na di mo na ako marinig
Ikaw pa rin ang buhay ko

Naalala ko pa
Nung pinapangarap pa lamang kita
Hahatid, susunduin
Kahit mga bituin aking susungkitin

Bridge: D-E-F#m-E

Araw-araw kitang liligawan
Haharanahin ka lagi
Kitang liligawan
Haharanahin ka lagi

Repeat Chorus


====================================================
This Tab is dedicated to all my classmates in CNHS,
friends, and especially to my mother!!
ADD ME SA FB: https://www.facebook.com/ilovEyaAll
====================================================
Suggest correction
Give kudos to tab author, rate the tab!
1 2 3 4 5
comments
print report bad tab
3 comments total.
0 reply
sheemai_0 10 Mar 04, 2013 09:18 PM

..pde narin.. :)) CNHS..?? carolina national hs ba un..?

0 reply
naguenyong vinx 3,790 Mar 06, 2013 05:55 PM

hnde.. cararayan national high school sa naga city. hehehe

0 reply
meekoestores223 10 Jan 20, 2015 04:43 AM

ok din! malupet

guest
You may want to rate the tab now too:
select rating
Wanna post a correction for this tab? Suggest correction