Oops, an error
Loading. Please wait.

Buko Tab

version 3
version 3
1,411 views 3 this week
no commentswrite comment
1 2 3 4 5
please rate
add to favorites
launch autoscroll
font size
0
reset
how to read this tab
guitar tuner
Autoscroll
slow
fast
+/-
esc
set tempo
stop
Help us to improve Ultimate-Guitar.com Take our survey!
×
Author
Difficulty
intermediate
-----------------------------------------------------------------------------
                             Buko - Jireh Lim
-----------------------------------------------------------------------------



Tabbed by:jarimikel (iligan CT)
E-mail:jari.ramirez@ymail.com (FB)jari ramirez

Tuning:EADGBE


Intro:  E B C#m A


e|-0---0--0---0---|--0----2-------|
B|-0---4--5---0---|--0----4-------|
G|-1---4--6---2---|--4----4-------|
D|-2---4--6---2---|--6----4-------|
A|-2----------0---|--2------------|
E|----------------|--0------------|
   E   B  C#m A  OR  E    B



Intro: Guitar  Lead
e|-------9-12-10-9-----------------|
B|-10h12-----------10-10/12--------|
G|---------------------------------|
D|---------------------------------|
A|---------------------------------|
E|---------------------------------|
                                                 2X
e|-------9-12-10-9------------------------|
B|-10h12-----------10-10/12--12/14-12-10--|
G|----------------------------------------|
D|----------------------------------------|
A|----------------------------------------|
E|----------------------------------------|



this part of intro ( Kahit na di mo na abot ang sahig.
Kahit na di mo na 'ko marinig)(parang ganito ang tunog sa guitar na part)


e|-9---------------9--12----|-9--------------9-----------|
B|---12-10---10-12-------12-|---12-10---10-12--12--------|
G|---------9----------------|---------9------------------|
D|--------------------------|----------------------------|
A|--------------------------|----------------------------|
E|--------------------------|----------------------------|



Verse: A - C#m - Bm - E

Naalala ko pa 

Nung nililigawan pa lamang kita

Dadalaw tuwing gabi 

Masilayan lamang ang 'yong mga ngiti

At Ika'y sasabihan

Bukas ng alas siyete sa dating tagpuan

Buo ang araw ko

Marinig ko lang ang mga himig mo



Refrain: Bm - C#m 2x        Dm


Hindi ko man alam kung nasan ka

Wala man tayong komunikasyon

Mag hihintay sa'yo buong magdamag

Dahil ikaw ang buhay ko


Chorus: A - C#m - Bm - E 2x 

Kung inaakala mo

Ang pag-ibig ko'y magbabago

Itaga mo sa bato...............

Bm - C#m - Bm - C#m - D - E

(pwede rin isabay eto sa Chorus )(may kabilisan eto )
e|---------------9-10-12-|
B|------9-10-12----------|
G|-9-11------------------|   Then......
D|-----------------------|
A|-----------------------|
E|-----------------------|

kung inaakala mo....

e|-------9-12-10-9-----------------|
B|-10h12-----------10-10/12--------|
G|---------------------------------|
D|---------------------------------|
A|---------------------------------|
E|---------------------------------|

ang pag ibig ko magbabago
                                                 2X
e|-------9-12-10-9------------------------|
B|-10h12-----------10-10/12--12/14-12-10--|
G|----------------------------------------|
D|----------------------------------------|
A|----------------------------------------|
E|----------------------------------------|




Thanks po..... merong part na improvise lng po ^_^ 
09271337154  for Questions ^_^
Suggest correction
Give kudos to tab author, rate the tab!
1 2 3 4 5
comments
print report bad tab
guest
You may want to rate the tab now too:
select rating
Please do not post tabs as comments. Select "correction" instead!