Oops, an error
Loading. Please wait.

Buko Tab

version 4
version 4
40,326 views 27 this week
2 commentsread comments
1 2 3 4 5
excellent!
x 18
add to favorites
launch autoscroll
font size
0
reset
how to read this tab
guitar tuner
Autoscroll
slow
fast
+/-
esc
set tempo
stop
Help us to improve Ultimate-Guitar.com Take our survey!
×
Author
Difficulty
Buko by Jireh Lim
tabbed: ferdz el tobats
email/Fb: tobatsdrive@yahoo.com
twitter: ferdz_rock
facebook page : ferdztobats
cp no: 09291434311

kung may tanong pm nyo lang ako sa fb or txt sa 09291434311 

dedicated ko ung song na toh kay stephanie razo... c kras :) hehe

intro:
e|--12--10-9--------9-9-12-10--9-----------------------|
B|--10-------10-12---------------10-12-12s14-12-10-----|
G|--9--------------------------------------------------|
D|-----------------------------------------------------|
A|-----------------------------------------------------|
E|-----------------------------------------------------|

e|--9-9-12-10--9--------9-9-10-9-----------------------|
B|---------------10-12-----------10-12-12s14-12-10-----|
G|-----------------------------------------------------|
D|-----------------------------------------------------|
A|-----------------------------------------------------|
E|-----------------------------------------------------|

Verse:
A          C#m
Naalala ko pa
Bm                 E
Nung nililigawan pa lamang kita
A          C#m
Dadalaw tuwing gabi
Bm                          E
Masilayan lamang ang ‘yong mga ngiti

A          C#m
At Ika’y sasabihan
Bm                      E
Bukas ng alas siyete sa dating tagpuan
A          C#m
Buo ang araw ko
Bm                     E
Marinig ko lang ang mga himig mo

Bm                      C#m
Hindi ko man alam kung nasan ka
Bm                      C#m
Wala man tayong komunikasyon
Bm                      C#m
Mag hihintay sa’yo buong magdamag
D                      .... Dm              
Dahil ikaw ang buhay ko

Chorus: 
A              C#m
Kung inaakala mo
Bm                  E
Ang pag-ibig ko’y magbabago
A              C#m
Itaga mo sa bato
Bm                    E
Dumaan man ang maraming pasko

guitar 1:

Bm                   C#m
Kahit na di mo na abot ang sahig
Bm                   C#m
Kahit na di mo na ‘ko marinig
D                       D
Ikaw pa rin ang buhay ko

guitar 2:     Bm   C#m   Bm    C#m
e|------------12----9----------------|
B|-----------------------10----12----|
G|-----------------------------------|
D|-----------------------------------|
A|-----------------------------------|
E|-----------------------------------|

D....
ikaw pa rin, ang buhay ko

intro:

Verse: A - C#m - Bm - E 2x 
Naalala ko pa
Nung pinapangarap pa lamang kita
Hahatid, susunduin
Kahit mga bituin aking susungkitin

Chorus:

A              C#m
Kung inaakala mo
Bm                  E
Ang pag-ibig ko’y magbabago
A              C#m
Itaga mo sa bato
Bm                    E
Dumaan man ang maraming pasko
Bm                   C#m
Kahit na di mo na abot ang sahig
Bm                   C#m
Kahit na di mo na ‘ko marinig
D              D         
Ikaw pa rin.... 

Bridge: D - E - F#m - E 2x D 
Araw-araw kitang liligawan
Haharanahin ka lagi
Kitang liligawan
Haharanahin ka lagi

Chorus: A C#m Bm E 2x...F#
Kung inaakala mo
Ang pag-ibig ko’y magbabago
Itaga mo sa bato
Pumuti man ang mga buhok ko
ohhhh... 

B Ebm C#m F# 2x...
Kung inaakala mo
Ang pag-ibig ko’y magbabago
Itaga mo sa bato
Dumaan man ang maraming pasko

B Ebm C#m F# 2x...
Kung inaakala mo
Ang pag-ibig ko’y magbabago
Itaga mo sa bato
Dumaan man ang maraming pasko
C#m                Ebm
Kahit na kumulubot ang balat
C#m                Ebm
Kahit na hirap ka nang dumilat
C#m                Ebm
Kahit na di mo na abot ang sahig
C#m                Ebm
Kahit na di mo na ako marinig 
E          E           F#
Ikaw parin(ikaw pa rin)

End: B
Ang buhay ko.
Suggest correction
What's this?
You can suggest a correction to this tab. Community and Mods will review your correction and vote to approve or reject it.
comments
print report bad tab
2 comments total.
0 reply
Firezz389 32 wrote on May 20 2013, 10:31 am

this tab is awesome!

0 reply
jen.ilagan.9 11 wrote on June 20 2013, 01:21 am

thank you sa tab!!!!!!!!!!!!!!!!

guest
You may want to rate the tab now too:
select rating
Please do not post tabs as comments. Select "correction" instead!