Oops, an error
Loading. Please wait.

Diwata Tab

6,957 views 18 this week
no commentswrite comment
1 2 3 4 5
please rate
add to favorites
launch autoscroll
font size
0
reset
how to read this tab
guitar tuner
Autoscroll
slow
fast
+/-
esc
set tempo
stop
Help us to improve Ultimate-Guitar.com Take our survey!
×
Author
Difficulty
Capo
huyoclyde 102
novice
1st fret
Try and Enjoy!

Diwata by : Jireh Lim
Sabay nyo sa tugtog mas madali! ^_^
Tabbed by : Clyde Hinrich ;)
  
Strumming
D = down           
U = up

Capo 1st Fret

VERSE 1 :

e|----3-|----3-|----3-|----3-|
b|---3--|---3--|---3--|---3--|
g|--0---|--0---|--0---|--0---| 3x 
d|------|------|------|-2----|
a|------|-2----|-3----|------|
e|-3----|------|------|------|

e|----3-|----3-|----3-|---------|
b|---3--|---3--|---3--|-------3-|
g|--0---|--0---|--0---|------0--|  
d|------|------|------|-2-------|
a|------|-2----|-3----|---------|
e|-3----|------|------|---------|

e|----3-|----3-|----3-|----3-|
b|---3--|---3--|---3--|---3--|
g|--0---|--0---|--0---|--0---| 3x 
d|------|------|------|-2----|
a|------|-2----|-3----|------|
e|-3----|------|------|------|
                        D
e|----3-|----3-|----3-|-2---|
b|---3--|---3--|---3--|-3---|
g|--0---|--0---|--0---|-0---|  
d|------|------|------|-0---|
a|------|-2----|-3----|-0---|
e|-3----|------|------|-X---|

e|----3-|----3-|----3-|----3-|
b|---3--|---3--|---3--|---3--|
g|--0---|--0---|--0---|--0---| 2x 
d|------|------|------|-2----|
a|-2----|-3----|-0----|------|
e|------|------|------|------|
                           D
e|-------3----|-----3------2--|
b|---3-3---3--|---3---3----3--|
g|--0-0-0-0-0-|--2-2-2-2---2--|
d|------------|-0----------0--|
a|-3----------|------------0--|
e|------------|------------X--|

CHORUS :
   
   D    D DUDU | D    D DUDU | D     D DUDU | D    UDUDU
e|-3----3-3333-|-3----3-3333-|-3---3-3-3333-|-3-3--33333-|
b|-3--0-3-3333-|-3-3--3-3333-|-3-2---3-3333-|-3--3-33333-|
g|-0-3--0-0000-|-2--2-2-2222-|-0--0--0-0000-|-0----00000-|
d|-0----0-0000-|-0----0-0000-|-2-----2-2222-|-2----22222-|
a|-2----2-2222-|-0----0-0000-|-2-----2-2222-|-3----33333-|
e|-3----3-3333-|-X----X-XXXX-|--------------|------------|


   D     D DUDU | D     D DUDU | D     D DUDU | D  | D         D
e|-3-3---3-3333-|-3---3-3-3333-|-3---3-3-3333-|-3--|-3---------3-|
b|-3--3--3-3333-|-3-3---3-3333-|-3-3---3-3333-|-3--|-4--4-4-4--4-|
g|-0---0-0-0000-|-2--2--2-2222-|-0--2--0-0000-|-0--|-3-3-3-3-3-3-|
d|-0-----0-0000-|-0-----0-0000-|-2-----2-2222-|-2--|-5---------5-|
a|-2-----2-2222-|-0-----0-0000-|-2-----2-2222-|-3--|-3---------3-|
e|-3-----3-3333-|-X-----X-XXXX-|--------------|----|-3---------3-|

INTERLUDE
 
                                                        D
e|------|---3--|---3--|-2-2d3---|------|---2s0---|------2-|
b|---3--|----3-|----3-|--3---3--|---3--|-3----3--|---3--3-|
g|--0-0-|--0---|--0---|-------0-|--0-0-|--0----0-|--0-0-0-|
d|------|------|------|---------|------|---------|------0-|
a|------|-2----|-3----|---------|------|-2-------|-3----0-|
e|-3----|------|------|---------|-3----|---------|------X-|

VERSE 2 :

e|---3-3-|----3-|----3-|----3-| 
b|-------|---3--|---3--|---3--| 
g|--0----|--0---|--0---|--0---|  
d|-------|------|------|-2----| 
a|-------|-2----|-3----|------| 
e|-3-----|------|------|------| 

e|----3-|----3-|------|-3--3-|
b|---3--|---3--|---3--|--3---|
g|--0---|--0---|--0-3-|---0--| 
d|------|------|------|------|
a|------|-2----|-3----|------|
e|-3----|------|------|------|

e|----3-|----3-|----3-|----3-|
b|---3--|---3--|---3--|---3--|
g|--0---|--0---|--0---|--0---| 
d|------|------|------|-2----|
a|------|-2----|-3----|------|
e|-3----|------|------|------|

e|----3-|------|------|-2---|
b|---3--|---3--|---3--|-3---|
g|--0---|--0-0-|--0-0-|-0---|  
d|------|------|------|-0---|
a|------|-2----|-3----|-0---|
e|-3----|------|------|-X---|

CHORUS : Strumming only! yun parin ang chords....
     medyo magulo!, haha madali lang yan!                    kakapain pa yung pahule eh!,...

                      ..>ENJOY<.. :D
Suggest correction
What's this?
You can suggest a correction to this tab. Community and Mods will review your correction and vote to approve or reject it.
comments
We did not receive enough feedback on this tab! Please rate:
print report bad tab
1 2 3 4 5
guest
You may want to rate the tab now too:
select rating
Please do not post tabs as comments. Select "correction" instead!