Oops, an error
Loading. Please wait.

Cleverly Disguised bass

by JJAMZ
141 views 3 this week
1 commentread comment
1 2 3 4 5
x 3
add to favorites
×
Save as Personal and add changes to this tab that will be seen only by you. Learn more ›
×
You can save this tab as Personal to edit and correct it or add notes. All changes will be seen only by you. Learn more »
launch autoscroll
font size
0
reset
guitar tuner
edit
Autoscroll
slow
fast
+/-
esc
set tempo
stop
Author
Artist: JJAMZ
Song: Cleverly Disguised
Tabbed by: James Gat

not an accurate representation of rhythm.
listen to the track to figure it out

Bass tabs

Intro:
optional slide after each B
g---------------|
d---------------|
a---------------|
e-7---7---7---7-|

Verse:
Buried Alive...
g----------------------------------------------------------|
d----------------------------------------------------------|
a---------------9-11---------------11-9------------------9-|
e-7-7-7-x-7-7-7------7-7-7-x-7-7-7------9-9-9-x-9-9-9-11---|

g------------------------|
d------------------------|
a------------------------|
e-11-11-11-11-9-9-9-11-9-|

X2

Pre-chorus:
Yes, even the good ones...
g------------------------------------------------------------------------|
d-------------------6-6-4-4----------------------------------------------|
a-6-6-6-x-6-6-x-6-6---------7-7-6-6--6-6-6-x-6-6-x-6-5-4-4-4-x-4-4-4-4-6-|
e------------------------------------------------------------------------|

Sometimes...
g-------------------|
d---------4-4-------|
a-------------4-6-4-|
e-2-2-2-x-----------|

Chorus 1:
This lonesome feeling...
g---------------------------------------------4-----4-6/8-6-|
d-------------------------------------------6---6-5---------|
a-------6-5-4--------/6-4-2-4-------6-5-4-7-----------------|
e-7-7-7-------0-2-4-2---------7-7-7-------------------------|

g--------------------------------------------4-/8--------------------9-11-13-|
d-------------------------------------------6-6---11-9--------9-11-12--------|
a-------6-5-4--------/6-4-2-4-------6-5-4-7-----------11-10-12---------------|
e-7-7-7-------0-2-4-2---------7-7-7------------------------------------------|


Interlude:
same as intro


Verse 2:
Same


Pre-chorus 2:
same as 1st Pre-chorus, but on the 2nd "Sometimes..."
g-----------------|
d-----4-4-2-2-1-1-|
a-----------------|
e-2-2-------------|

Chorus 2:

g---------------------------------------------4-----4-6/8-6-|
d-------------------------------------------6---6-5---------|
a-------6-5-4---------6-4-2-4-------6-5-4-7-----------------|
e-7-7-7-------0-2-4-2---------7-7-7-------------------------|

g---------------------------------------------4-6/8-6-4-------------------|
d-------------------------------------------6-----------6-5-4-2-----------|
a-------6-5-4---------6-4-2-4-------6-5-4-7---------------------5-4-2-4-5-|
e-7-7-7-------0-2-4-2---------7-7-7---------------------------------------|

Solo:

g-----------------------------------------------------------------------|
d-----------------------------------------------------------------------|
a-6-6-6-x-6-6-x-6-5-------------3-3-4-4-4-x-4-4-x-4-5-6-6-6-x-6-6-x-6-5-|
e-------------------4-4-6-6-7-7-----------------------------------------|

g-------------------------------------------------------------------------|
d---------------------------------------------------------------4-4-------|
a-4-4-4-x-4-4-x-4-5-------------3-3-4-4-4-x-4-4-4-x-4-6-------------4-6-4-|
e-------------------4-4-6-6-7-7-------------------------2-2-2-x-----------|

g-----------------4---4~-|
d---------4-4-4h6---6----|
a------------------------|
e-2-2-2-x----------------|


Break: no bass


Half-Chorus 3:
g------------------------------------------------4-6/8-6-4--------------------|
d----------------------------------------------6-----------6-5-4-2------------|
a-----------6-5-4---------6-4-2-4-------6-5-4-7---------------------5-4-2-4-5-|
e-19//-7-7-7-------0-2-4-2---------7-7-7--------------------------------------|

Last Chorus:
Same as Chorus 1

Outro:
Same as Intro

            
            
Suggest correction
Creating personal tab
Creating personal tab
You can edit any tab online and save it as your Personal.

You can edit, replace or remove any tab part or add personal notes – all changes will be seen only by you.

Personal tabs can be accessed anytime from any device, even offline.
Learn more »
Give kudos to tab author, rate the tab!
1 2 3 4 5
comments
print report bad tab
1 comment total.
0 reply
Beffen 53 Oct 23, 2012 09:15 AM

Fucking awesome!

guest
You may want to rate the tab now too:
select rating
Wanna post a correction for this tab? Suggest correction