Oops, an error
Loading. Please wait.

En La Soledad Bass

by JLS
26 views 1 this week
no commentswrite comment
1 2 3 4 5
3 more votes to show rating
add to favorites
×
Save as Personal and add changes to this tab that will be seen only by you. Learn more ›
×
You can save this tab as Personal to edit and correct it or add notes. All changes will be seen only by you. Learn more »
save as personal
new!
launch autoscroll
font size
0
reset
guitar tuner
Autoscroll
slow
fast
+/-
esc
set tempo
stop
Esta Canción es una de esas cancione melancólicas que escribe
el Sr. Leo Susana,vocalista y guitarrista de JLS. La canción
es un Bonus Track en el CD Serpiente en el Huerto. Se encuentra
en el minuto 4:50 de la canción #11.


El intro va solo en guitarra por los primeros 20 o 25
segundos,
luego es donde entra el bajo.

RIFF 1:
G |---------------------------------------------------|
D |---------------------------------------------------|
A |------3-5------------------------------------------|
E |-5--5----------------------------------------------|

 Esto de arriba va junto con el sonido del bombo de la
batería,
solo se tocará durante el verso.

RIFF 2:
G |---------------------------------------------------|
D |----------------------------------3-3-55-----------|
A |---3-5--------------3-3-5-5-5-3-5------------------|
E |-5--------------5-5----------------------3-3-3-----|

 Esto fue el coro, creo que se repite unas 4 o 5 veces.

La parte en la que la canción se pone un poquito más pesada va
muy parecida al coro, solo que lleva una notas más al final.

 Va así:

G |-------| |--------------------------------------|
D |-------| |-----------------3-3-55---------------|
A |---3-5-| |---3-3-5-5-5-3-5----------------------|
E |-5-----| |-5-5----------------------3-3-3-5-3-5-|

G |-------|
D |-------|
A |-------|
E |-3-3-5-|

FIN:

G |---|
D |---| 
A |-5-| [Dejar sonar esta nota]
E |---|

Si encuentras algun error en este tab, favor enviarme
un e-mail a:
oliverdominguez@

                               /odo.01
Suggest correction
Give kudos to tab author, rate the tab!
1 2 3 4 5
comments
print report bad tab
guest
Wanna post a correction for this tab? Suggest correction