Oops, an error
Loading. Please wait.

Enemigo De La Sociedad Bass Tab

by JLS
8 views 1 this week
no commentswrite comment
1 2 3 4 5
3 more votes to show rating
add to favorites
launch autoscroll
font size
0
reset
guitar tuner
Autoscroll
slow
fast
+/-
esc
set tempo
stop
Help us to improve Ultimate-Guitar.com Take our survey!
×
bajo de 4 cuerdas
 
(E A D G)  


|---------||---------------------||-||--------------------------|-------|
|---------||o-------------------o||-||o-------------------------|-------|
|---------||o---2-1-------------o||-||o---7-7-7-7-7-7-7-7-7-7-7-|-6-6-6-|
|-1-1-1-1-||--0-----3-2-1-1-1-1--||-||--0-----------------------|-------|


  
|--------------------||-||---------------------||-||---------------------|
|-------------------o||-||o-------------------o||-||o--------------------|
|-6-6-6-6-6-6-6-6-6-o||-||o---2-1-------------o||-||o---7-7-7-7-7-7-7-7--|
|--------------------||-||--0-----3-2-1-1-1-1--||-||--0------------------|


|-------|--------------------------||-||---------------------||-|----|-|
|-------|-------------------------o||-||o-------------------o||-|----|-|
|-7-7-7-|-6-6-6-6-6-6-6-6-6-6-6-6-o||-||o---2-1-------------o||-|----|-|
|-------|--------------------------||-||--0-----3-2-1-1-1-1--||-|-0--|-|


   
||------------|-----------------|-----------|
||o-----------|-----------------|-----------|
||o-----------|-------------1-0-|-----------|
||--0-0-1-0-0-|-(0)-0-0-1-0-----|-0-0-1-0-0-|


|--------------------||-||--------------------|
|-------------------o||-||o-------------------|
|-------------------o||-||o-------------------|
|-(0)-0-0-0-0-0-0-3--||-||---0-0-0-0-0-0-0-1--|


  
|------------------||-||---------------|
|-----------------o||-||o--------------|
|-----------------o||-||o--------------|
|-0-0-0-/3--0-/3---||-||--0--0--1-0--0-|


|------------------|--------------|---------------------||-|
|------------------|--------------|--------------------o||-|
|--------------1-0-|--------------|--------------------o||-|
|-(0)-0--0-1-0-----|-0--0--1-0--0-|-(0)-0--0-0-0-0-0-3--||-|


||------------------------||-||--------------------------|---------|
||o----------------------o||-||o-------------------------|---------|
||o----2--1--------------o||-||o---7-7-7-7-7-7-7-7-7-7-7-|-6-6-6---|
||--0--------3-2-1-1-1-1--||-||--0-----------------------|---------|


|--------------------||-||------------------------||-||---------------||-|
|-------------------o||-||o----------------------o||-||o-------------o||-|
|-6-6-6-6-6-6-6-6-6-o||-||o----2--1--------------o||-||o-------------o||-|
|--------------------||-||--0--------3-2-1-1-1-1--||-||--1-1-1-1-0----||-|
Suggest correction
Give kudos to tab author, rate the tab!
1 2 3 4 5
comments
print report bad tab
guest
You may want to rate the tab now too:
select rating
Wanna post a correction for this tab? Suggest correction