Oops, an error
Loading. Please wait.

Enemigo De La Sociedad Chords

by JLS
19 views 3 this week
no commentswrite comment
1 2 3 4 5
3 more votes to show rating
add to favorites
launch autoscroll
font size
0
reset
transpose
0
reset
display chords
guitar tuner
Autoscroll
slow
fast
+/-
esc
set tempo
stop
Help us to improve Ultimate-Guitar.com Take our survey!
×
 NO SE POR QUE TODAVIA NADIE HAVIA MANDADO ESTA CANCION YA QUE ES UNA DE LAS MEJORES 
CANCIONES DE LA MEJOR AGRUPACION DE LA REP. DOM. LE PIDO A QUIEN PUEDA INTERESAR QUE
POR FAVOR MANDEN MAS CANCIONES DE GRUPOS DOMINICANOS A ESTA PAGINA PARA QUE ESTE AL 
ALCANSE DE TODOS.


 Este es el princio :

Figura 1
  
E-----------------------------------------------------------
B-----------------------------------------------------------
G-----------------------------------------------------------
D--4--4--4--4---2---4--3---6--5--4--4--4--4---2-------------
A--4--4--4--4---2---2--1---6--5--4--4--4--4---2-------------
D--4--4--4--4---2----------6--5--4--4--4--4---2-------------

Figura 2
        
   E     D#     E      D#      
E-----------------------------
B-----------------------------
G-----------------------------
D--2------1------2------1-----
A--2------1------2------1-----
D--2------1------2------1-----

Figura 3

En estas dos partes va un peq juego, estos son los tonos y lo otro se los dejo a ustedes  

E-------------------------------------------
B-------------------------------------------
G-------------------------------------------2X
D--9--9--9--10--9--9--10-10-10---12--12-----
A--7--7--7--8---7--7--8--8--8----10--10-----
D-------------------------------------------

Figura 4

Mientras canta en la mitad de la cancion va haciendo esto
 
E---------------------------------------
B---------------------------------------
G---------------------------------------
D--2--2--2--3--2--2--3--3--3---5-5------
A--2--2--2--3--2--2--3--3--3---5-5------
D--2--2--2--3--2--2--3--3--3---5-5------


Esto es cuando empieza a cantar


E
Yo naci bajo un cielo negro
D#
yo naci en la oscuridad
E
mi madre trabajaba en la feria
D#
mi madre era una puta.
 

Figura 1

E
Nunca conoci a mi padre 
D#
mi madre no recuerda si fue
E
el cura , el primo algun vecino 
D#
o algun cliente que rompio su red.


Figura 1

Figura 3

Figura 4

Mi alma vacia las calles camina

mi amiga fiel es la heroina 

ella me da su cruel compania

la madre que mi mente imagina.


De  muy joven edad fui abandonado

anduve las calles desamparado

busque liquidar la fuente de mis histerias 

coji a mi madre y le corte las arterias

y vi la sangre correr.


Figura 1(pero al principio si darle a traste 4)

E
Yo naci bajo un cielo negro
D#
y ahora vivo en la oscuridad
E
trancado en una jaula de acero 
D#
por ser enemigo de la sociedad!!

Figura 1

enemigo de la sociedad!! de mi alma ten piedad

soy enemigo de la maldita sociedad.
Suggest correction
Give kudos to tab author, rate the tab!
1 2 3 4 5
comments
print report bad tab
guest
You may want to rate the tab now too:
select rating
Wanna post a correction for this tab? Suggest correction