Oops, an error
Loading. Please wait.

Enemigo De La Sociedad Tab

by JLS
29 views 3 this week
no commentswrite comment
1 2 3 4 5
3 more votes to show rating
add to favorites
launch autoscroll
font size
0
reset
how to read this tab
guitar tuner
×
Best way to learn
"Enemigo De La Sociedad"
Autoscroll
slow
fast
+/-
esc
set tempo
stop
(E B G D A E)

|---------|-------------------|-------------------|-------------------|
|---------|-------------------|-------------------|-------------------|
|---------|-------------------|-------------------|-------------------|
|---------|-------------------|-------------------|-------------7---7-|
|-3-3-3-3-|---2-1-----3-3-3-3-|---2-1-----3-3-3-3-|---6-5-------------|
|-1-1-1-1-|-0-----3-2-1-1-1-1-|-0-----3-2-1-1-1-1-|-0-----7-6-5---5---|


                                       F5
               PM  PM
  Q  Q  Q  E E S S S S   Q  Q  Q   E E  S  S  S  S
|----------------------|---------------------------||--|
|----------------------|---------------------------||o-|
|----------------------|---------------------------||--|
|----------------7---7-|----9--8-------10-10-10-10-||--|
|----6--5--------------|-7--------10-9--8--8--8--8-||o-|
|-0--------7-6-5---5---|----------------8--8--8--8-||--|


  E5              Eb               E5

|---------------|----------------|------------------|
|---------------|----------------|------------------|
|-9-------(9)-9-|-8----(8)-8-8-8-|-9-------(9)-9----|
|-9-------(9)-9-|-8----(8)-8-8-8-|-9-------(9)-9----|
|-7-------(7)-7-|-6----(6)-6-6-6-|-7-------(7)-7----|
|-7-------(7)-7-|-6----(6)-6-6-6-|-7-------(7)-7----|


 
|-----------------||-|-------------------|-------------------|--------|
|----------------o||-|-------------------|-------------------|--------|
|-8----(8)-8-8-8--||-|-------------------|-------------------|--------|
|-8----(8)-8-8-8--||-|-------------------|-------------7---7-|---9-8--|
|-6----(6)-6-6-6-o||-|---2-1-----3-3-3-3-|---6-5-------------|-7------|
|-6----(6)-6-6-6--||-|-0-----3-2-1-1-1-1-|-0-----7-6-5---5---|--------|


  
|------------------|---------------|
|------------------|---------------|
|------------------|-9-------(9)-9-|
|------10-10-10-10-|-9-------(9)-9-|
|-10-9--8--8--8--8-|-7-------(7)-7-|
|------------------|-7-------(7)-7-|


  
|----------------|---------------|------------------|
|----------------|---------------|------------------|
|-8----(8)-8-8-8-|-9-------(9)-9-|-8----(8)-8-8-8---|
|-8----(8)-8-8-8-|-9-------(9)-9-|-8----(8)-8-8-8---|
|-6----(6)-6-6-6-|-7-------(7)-7-|-6----(6)-6-6-6---|
|-6----(6)-6-6-6-|-7-------(7)-7-|-6----(6)-6-6-6---|


|----------------------|----------------------|
|----------------------|----------------------|
|----------------------|----------------------|
|----------------------|----------------------|
|----2--1------3-3-3-3-|----2--1------3-3-3-3-|
|-0--------3-2-1-1-1-1-|-0--------3-2-1-1-1-1-|


|----------------------|----------------------|-------|
|----------------------|----------------------|-------|
|----------------------|----------------------|-------|
|----------------------|----------------------|--2----|
|----2--1------3-3-3-3-|----2--1------3-3-3-3-|--2----|
|-0--------3-2-1-1-1-1-|-0--------3-2-1-1-1-1-|--0----|


||----------------|----------------|--------------|
||o---------------|----------------|--------------|
||----------------|----------------|--------------|
||----------------|----------------|--------------|
||o-\2--2--3-2--2-|---2--2-----1-0-|-2--2--3-2--2-|
||--\0--0--1-0--0-|---0--0-1-0-----|-0--0--1-0--0-|


|-------------------||-||-------------------|-|
|------------------o||-||o------------------|-|
|-------------------||-||-------------------|-|
|-------------------||-||-------------------|-|
|---2-2---------/5-o||-||o-2-2-2-2-2-2-2-3--|-|
|---0-0-0-0-0-0--3--||-||--0-0-0-0-0-0-0-1--|-|


|--------------------||-||---------------|
|-------------------o||-||o--------------|
|--------------------||-||---------------|
|--------------------||-||---------------|
|-2-2-2--/5-----/5--o||-||o-2--2--3-2--2-|
|-0-0-0--/3--0--/3---||-||--0--0--1-0--0-|


     
|----------------|--------------|----------------------||
|----------------|--------------|---------------------o||
|----------------|--------------|----------------------||
|----------------|--------------|----------------------||
|---2--2-----1-0-|-2--2--3-2--2-|---2--2---------/5---o||
|---0--0-1-0-----|-0--0--1-0--0-|---0--0-0-0-0-0--3----||

|-----------------------|-----------------------|
|-----------------------|-----------------------|
|-----------------------|-----------------------|
|-----------------------|-----------------------|
|----2--1-------3-3-3-3-|----2--1-------3-3-3-3-|
|-0--------3-2--1-1-1-1-|-0--------3-2--1-1-1-1-|

|-----------------------|-------------------------|
|-----------------------|-------------------------|
|-----------------------|-------------------------|
|-----------------------|-------------------------|
|----2--1-------3-3-3-3-|----2--1-------3-3-3-3---|
|-0--------3-2--1-1-1-1-|-0--------3-2--1-1-1-1---|


||----------------|----------------|---------------|-----------------||
||o---------------|----------------|---------------|----------------o||
||--9-------(9)-9-|-8----(8)-8-8-8-|-9-------(9)-9-|-8----(8)-8-8-8--||
||--9-------(9)-9-|-8----(8)-8-8-8-|-9-------(9)-9-|-8----(8)-8-8-8--||
||o-7-------(7)-7-|-6----(6)-6-6-6-|-7-------(7)-7-|-6----(6)-6-6-6-o||
||--7-------(7)-7-|-6----(6)-6-6-6-|-7-------(7)-7-|-6----(6)-6-6-6--||


|------------------------|-------------------------|---------------------------|
|------------------------|-------------------------|---------------------------|
|------------------------|-------------------------|---------------------------|
|------------------------|-------------------------|-------------------7-----7-|
|----2--1--------3-3-3-3-|----2--1---------3-3-3-3-|----6--5-------------------|
|-0--------3--2--1-1-1-1-|-0--------3--2---1-1-1-1-|-0--------7--6--5-----5----|


|------------------------------|-||------------------|
|------------------------------|-||------------------|
|------------------------------|-||------------------|
|---------------------7-----7--|-||------------------|
|-----6--5---------------------|-||------2---1-------|
|--0---------7--6--5-----5-----|-||---0---------3--2-|


|--------------|--------------|------------|------||----|
|--------------|--------------|------------|------||----|
|--------------|--------------|------------|------||----|
|--------------|--------------|------------|------||----|
|-3-3-3-3-2----|-3-3-3-3-2----|-3-3-3-3-2--|-(2)--||----|
|-1-1-1-1-0----|-1-1-1-1-0----|-1-1-1-1-0--|-(0)--||----|
Suggest correction
Give kudos to tab author, rate the tab!
1 2 3 4 5
comments
print report bad tab
guest
You may want to rate the tab now too:
select rating
Wanna post a correction for this tab? Suggest correction