Oops, an error
Loading. Please wait.

Pa'tra!! Chords

by JLS
28 views 1 this week
no commentswrite comment
1 2 3 4 5
3 more votes to show rating
add to favorites
launch autoscroll
font size
0
reset
transpose
0
reset
simplify chords
display chords
guitar tuner
Autoscroll
slow
fast
+/-
esc
set tempo
stop
Help us to improve Ultimate-Guitar.com Take our survey!
×
PA?TRA!!!!
JLS
Todas las canciones de este CD son muy buenas. 
Me gusta esta en especial porque asi le sucedió a un amigo mio 
?Ella me dice tú ?ta en lo mi?mo?. 
Espero que Leo Susana perdone a un fan por fusilarle sus acordes.

Figura I
E-----------------------------------------------------
B-----------------------------------------------------
G-------7----7------------9----9---------------------
D-------7----7------------9----9---------------------
A-------5----5------------7----7---------------------
E------------------------------------------------------

Figura II
E----------------------------------------------------------------------
B----------------------------------------------------------------------
G----------------------------------------------------------------------
D-----------8^7^5-------------8^7^5-------------8^7^5-------------
A-----5^7----------------5^7----------------5^7-----------------5^7
E----------------------------------------------------------------------

Aqui comienza la letra tocando la figura I
Cuando dice ?Ya no aguanto más? suena la figura III y el coro va con la figura IV

Figura III
E-------------------------------------------------
B-------------------------------------------------
G-------------------------------------------------
D-------2---2---2---2---2---2---2---2-----------
A-------2---2---2---2---2---2---2---2-----------
E-------0---0---0---0---0---0---0---0-----------

Figura IV

A5  G5  F#5  B5   A5


?If I needed a ride home would I be renting a space shuttle??
                  Dr. Leonard Mcoy
Suggest correction
Give kudos to tab author, rate the tab!
1 2 3 4 5
comments
print report bad tab
guest
You may want to rate the tab now too:
select rating
Wanna post a correction for this tab? Suggest correction