Oops, an error
Loading. Please wait.

Reel God Bass

by Jo Day
60 views 1 this week
no commentswrite comment
1 2 3 4 5
3 more votes to show rating
add to favorites
×
Save as Personal and add changes to this tab that will be seen only by you. Learn more ›
×
You can save this tab as Personal to edit and correct it or add notes. All changes will be seen only by you. Learn more »
save as personal
new!
launch autoscroll
font size
0
reset
guitar tuner
Autoscroll
slow
fast
+/-
esc
set tempo
stop
Author
Band's Web Page: http://www.joday.com. to get samples of the songs: http://www.joday.com/discography.html

Song: Reel God
Album: No Warning
Band: Jo Day
Tabbed By: Jo Day F.B.I. Agent Gareth a.k.a SeepZ (hypercobra69@hotmail.com)
Instrument: Bass Guitar
Tuning: Dropped D (DADG)
This is my personal favourite of all Jo Day songs, probably cos I sang it
at Nile Crocodile on the 4th of June 2004 with the band. Best night of my life.
Anyway, the song's relatively simple, just timing can be tricky. Enjoy.

Intro Riff:
G----------------------------------------------------------------------|
D----------------------------------------------------------------------|
A----------------------------------------------------------------------|
D-0-0-230m-0-23--00-23-0-0-230m-0-88877--------------------------------|

Verse Riff:
G-----------------------------------------------------------------------|
D-----------------------------------------------------------------------|
A-----------------------------------------------------------------------|
D-0~~~-8~~-7~-----------------------------------------------------------|

Pre Chorus Riff:
G-----------------------------------------------------------------------|
D-----------------------------------------------------------------------|
A-----------------------------------------------------------------------|
D-0-0-230m----0-0-230m----0-0-230m----0-0-230m--------------------------|

Chorus Riff:
         X3                    X1
G---------------------|--------------------|---------------------------|
D---------------------|--------------------|---------------------------|
A---------------------|--------------------|---------------------------|
D-0000-3333-5555-8888-|-0000-3333-5555-8-8-|---------------------------|

Fill:
G-----------------------------------------------------------------------|
D-----------------------------------------------------------------------|
A-----------------------------------------------------------------------|
D-0~~~~~/12-------------------------------------------------------------|

Bridge Riff 1:
G-----------------------------------------------------------------------|
D-----------------------------------------------------------------------|
A-----------------------------------------------------------------------|
D-0—35-0-35-0-35-0-3635-0-35-0-35-0-35-0--------------------------------|

Bridge Riff 2:
G----------------------------------------------------------------------|
D----------------------------------------------------------------------|
A----------------------------------------------------------------------|
D-0-0-33-33-55-88-88\0-0-33-33-55-88-88--------------------------------|

Ending:
G----------------------------------------------------------------------|
D----------------------------------------------------------------------|
A----------------------------------------------------------------------|
D-0-0-230m-------------------------------------------------------------|


Intro Riff X4
Verse Riff X2
Intro Riff X2
Verse Riff X2
Pre Chorus Riff X1
Chorus Riff X1
Intro Riff X2
Verse Riff X2
Pre Chorus Riff X1
Chorus Riff X1
Fill X1
Bridge Riff 1 X1
Bridge Riff 2 X1
Bridge Riff 1 X1
Pre Chorus Riff X1 (My fave part of da song ;-)
Chorus Riff X2
Ending X1

Looks Technical, but its not really. The only hardish part is the bridge, and I'm nott 
that its right.
Suggest correction
Give kudos to tab author, rate the tab!
1 2 3 4 5
comments
print report bad tab
guest
You may want to rate the tab now too:
select rating
Wanna post a correction for this tab? Suggest correction