Oops, an error
Loading. Please wait.

There It Is Chords

10 views 1 this week
1 commentread comment
1 2 3 4 5
3 more votes to show rating
add to favorites
launch autoscroll
font size
0
reset
transpose
0
reset
simplify chords
display chords
guitar tuner
Autoscroll
slow
fast
+/-
esc
set tempo
stop
Help us to improve Ultimate-Guitar.com Take our survey!
×
Author
Difficulty
novice
Song: There it is
Artist: Jo Hamilton

All Chords within brackets are just the bass note (as is the fill below)

Fill 1: e------------
        B----------        
        G---------
        D-6-6------
        A---------7-
        E-----------


Opening verse can be played over a harmonic on high b string 

[Verse]

N.C
Climbing into the future
N.C
Leaving a wake of life
N.C
Fresh ideas for the picking
N.C
Throw them as seeds behind

[Chorus]

A            E/G#  (E   F#) 
And there it is
A          E/G#         (E   F#  E)
A world of hope
A         E/G#
Make your way
             C#m  B    A    E/G#  F#m   (Fill 1)  F#m
Through the undergrowth                   

[Verse]

N.C               (G#) (A)               E
Looking ahead what's round the corner
                                   (F#)   (F# A)    (B)    E
Intriguing adventures all around
                    (G#) A          F#m      
Leaving the map slightly unmapped
                        B 
Focus but not too tight


[Chorus]
        A           E  
And there it is 
        A           E  
A world of hope
        A           E  
Make your way 
                 C#m  B    A    E/G#  F#m
Through the undergrowth

[Solo]

I tend to ad lib tremolo style
e -12~----11~-9~--------------            --12~-----11~-9~-------------------
B----------------12~-------9~-  x2   then -----------------12~------9~---12~-
G-----------------------------            -----------------------------------
D-----------------------------            -----------------------------------
A-----------------------------            -----------------------------------
E-----------------------------            -----------------------------------

e---12~-11~-9~---------------------------
B--------------12~---5~7-9~----9-10-9-10-  
G----------------------------------------
D----------------------------------------
A----------------------------------------
E----------------------------------------
 
[Chorus]

A           E  
And there it is 
A           E  
A world of hope
A           E  
Make your way 
A           F#m 
Through the undergrowth

        A           E  
And there it is 
        A           E  
A world of hope
        A           E  
Make your way 
                 C#m  B    A    E/G#  F#m
Through the undergrowth

 



Suggest correction
Give kudos to tab author, rate the tab!
1 2 3 4 5
comments
print report bad tab
1 comment total.
0 reply
jimisjoint 220 Sep 27, 2016 10:08 PM

Video I tabbed it from: https://www.youtube.com/watch?v=gG2hFVnBSAg

guest
You may want to rate the tab now too:
select rating
Wanna post a correction for this tab? Suggest correction