Oops, an error
Loading. Please wait.

Der Goldene Reiter Tab

11,723 views 12 this week
no commentswrite comment
1 2 3 4 5
2 more votes to show rating
add to favorites
launch autoscroll
font size
0
reset
how to read this tab
guitar tuner
Autoscroll
slow
fast
+/-
esc
set tempo
stop
Help us to improve Ultimate-Guitar.com Take our survey!
×
Author
Difficulty
novice
http://www.joachimwitt.de/


Der Goldene Reiter (1981)                             

Joachim Witt

guitar 1

intro

     E  E  E  E  E  E  E  E     E  E  E  E  E  E  E  E   
E||--------------------------|--------------------------|
B||--------------------------|--------------------------|
G||--------------------------|--------------------------|
D||--5--5--5--5--5--5--5--5--|--5--5--5--5--5--5--5--5--|
A||--5--5--5--5--5--5--5--5--|--5--5--5--5--5--5--5--5--|
E||--3--3--3--3--3--3--3--3--|--3--3--3--3--3--3--3--3--|


  E  E  E  E  E  E  E  E     E  E  E  E  E  E  S S S S  
--------------------------|----------------------------|
--------------------------|----------------------------|
--------------------------|----------------------------|
--5--5--5--5--5--5--5--5--|--5--5--5--5--5--5--5-5-5-5-|
--5--5--5--5--5--5--5--5--|--5--5--5--5--5--5--5-5-5-5-|
--3--3--3--3--3--3--3--3--|--3--3--3--3--3--3--3-3-3-3-|


verse 1

  Q    E  E  E  E  E  E     E  E  E  E  E  E  E  E     E  E  E  E  E  E  E  E   
-------------------------|--------------------------|--------------------------|
-------------------------|--------------------------|--------------------------|
-------------------------|--------------------------|--------------------------|
--5----5--5--5--5--5--5--|--5--5--5--5--5--5--5--5--|--8--8--8--8--8--8--8--8--|
--5----5--5--5--5--5--5--|--5--5--5--5--5--5--5--5--|--8--8--8--8--8--8--8--8--|
--3----3--3--3--3--3--3--|--3--3--3--3--3--3--3--3--|--6--6--6--6--6--6--6--6--|


  E  E  E  E  E  E  E  E     E  E  E  E  E  E  E  E   
--------------------------|--------------------------|
--------------------------|--------------------------|
--------------------------|--------------------------|
--3--3--3--3--3--3--3--3--|--3--3--3--3--3--3--3--3--|
--3--3--3--3--3--3--3--3--|--3--3--3--3--3--3--3--3--|
--1--1--1--1--1--1--1--1--|--1--1--1--1--1--1--1--1--|

                            verse 2

  E  E  E  E  E  E  E  E     E  E  E  E  E  E  E  E   
--------------------------|--------------------------|
--------------------------|--------------------------|
--------------------------|--------------------------|
--3--3--3--3--3--3--3--3--|--5--5--5--5--5--5--5--5--|
--3--3--3--3--3--3--3--3--|--5--5--5--5--5--5--5--5--|
--1--1--1--1--1--1--1--1--|--3--3--3--3--3--3--3--3--|


  E  E  E  E  E  E  E  E     E  E  E  E  E  E  E  E   
--------------------------|--------------------------|
--------------------------|--------------------------|
--------------------------|--------------------------|
--8--8--8--8--8--8--8--8--|--3--3--3--3--3--3--3--3--|
--8--8--8--8--8--8--8--8--|--3--3--3--3--3--3--3--3--|
--6--6--6--6--6--6--6--6--|--1--1--1--1--1--1--1--1--|

                          
  E  E  E  E  E  E  E  E     E  E  E  E  E  E  E  E   
--------------------------|--------------------------|
--------------------------|--------------------------|
--------------------------|--------------------------|
--3--3--3--3--3--3--3--3--|--3--3--3--3--3--3--3--3--|
--3--3--3--3--3--3--3--3--|--3--3--3--3--3--3--3--3--|
--1--1--1--1--1--1--1--1--|--1--1--1--1--1--1--1--1--|


                           BREAK

  E  E  E  E  E  E  E  E     E  E  E  E  E  E  E  E   
--------------------------|--------------------------|
--------------------------|--------------------------|
--------------------------|--------------------------|
--3--3--3--3--3--3--3--3--|--5--5--5--5--5--5--5--5--|
--3--3--3--3--3--3--3--3--|--5--5--5--5--5--5--5--5--|
--1--1--1--1--1--1--1--1--|--3--3--3--3--3--3--3--3--|



  E  E  E  E  E  E  E  E     E  E  E  E  E  E  E  E   
--------------------------|--------------------------|
--------------------------|--------------------------|
--------------------------|--------------------------|
--5--5--5--5--5--5--5--5--|--5--5--5--5--5--5--5--5--|
--5--5--5--5--5--5--5--5--|--5--5--5--5--5--5--5--5--|
--3--3--3--3--3--3--3--3--|--3--3--3--3--3--3--3--3--|

                               verse 3 

  E  E  E  E  E  E  S S S S    Q    E  E  E  E  E  E   
----------------------------|-------------------------|
----------------------------|-------------------------|
----------------------------|-------------------------|
--5--5--5--5--5--5--5-5-5-5-|--5----5--5--5--5--5--5--|
--5--5--5--5--5--5--5-5-5-5-|--5----5--5--5--5--5--5--|
--3--3--3--3--3--3--3-3-3-3-|--3----3--3--3--3--3--3--|


  E  E  E  E  E  E  E  E     E  E  E  E  E  E  E  E   
--------------------------|--------------------------|
--------------------------|--------------------------|
--------------------------|--------------------------|
--5--5--5--5--5--5--5--5--|--8--8--8--8--8--8--8--8--|
--5--5--5--5--5--5--5--5--|--8--8--8--8--8--8--8--8--|
--3--3--3--3--3--3--3--3--|--6--6--6--6--6--6--6--6--|


  E  E  E  E  E  E  E  E     E  E  E  E  E  E  E  E   
--------------------------|--------------------------|
--------------------------|--------------------------|
--------------------------|--------------------------|
--3--3--3--3--3--3--3--3--|--3--3--3--3--3--3--3--3--|
--3--3--3--3--3--3--3--3--|--3--3--3--3--3--3--3--3--|
--1--1--1--1--1--1--1--1--|--1--1--1--1--1--1--1--1--|

                           VERSE 4
  E  E  E  E  E  E  E  E     E  E  E  E  E  E  E  E   
--------------------------|--------------------------|
--------------------------|--------------------------|
--------------------------|--------------------------|
--3--3--3--3--3--3--3--3--|--5--5--5--5--5--5--5--5--|
--3--3--3--3--3--3--3--3--|--5--5--5--5--5--5--5--5--|
--1--1--1--1--1--1--1--1--|--3--3--3--3--3--3--3--3--|


  E  E  E  E  E  E  E  E     E  E  E  E  E  E  E  E   
--------------------------|--------------------------|
--------------------------|--------------------------|
--------------------------|--------------------------|
--8--8--8--8--8--8--8--8--|--3--3--3--3--3--3--3--3--|
--8--8--8--8--8--8--8--8--|--3--3--3--3--3--3--3--3--|
--6--6--6--6--6--6--6--6--|--1--1--1--1--1--1--1--1--|


  E  E  E  E  E  E  E  E     E  E  E  E  E  E  E  E   
--------------------------|--------------------------|
--------------------------|--------------------------|
--------------------------|--------------------------|
--3--3--3--3--3--3--3--3--|--3--3--3--3--3--3--3--3--|
--3--3--3--3--3--3--3--3--|--3--3--3--3--3--3--3--3--|
--1--1--1--1--1--1--1--1--|--1--1--1--1--1--1--1--1--|

                     chorus 1 (chorus 2 und 3 sowie outro passiert das selbe)  )

  E  E  E  E  E  E  E  E     E  E  E  E   E  E  E  E   
--------------------------|---------------------------|
--------------------------|--------------10-----8-----|
--------------------------|--0-----7------------------|
--3--3--3--3--3--3--3--3--|---------------------------|
--3--3--3--3--3--3--3--3--|---------------------------|
--1--1--1--1--1--1--1--1--|---------------------------|


  E  E  E  E   E  E  E  E     E  E   E  E  E  E  E  E   
---------------------------|---------------------------|
--------------10-----8-----|---------------------------|
--0-----7------------------|--------10-----9-----5-----|
---------------------------|--3------------------------|
---------------------------|---------------------------|
---------------------------|---------------------------|


  E  E   E  E  E  E  E  E     E  E  E  E   E  E  E  E   
---------------------------|---------------------------|
---------------------------|--------------10-----8-----|
--------10-----9-----5-----|--0-----7------------------|
--3------------------------|---------------------------|
---------------------------|---------------------------|
---------------------------|---------------------------|


  E  E  E  E   E  E  E  E     E  E   E  E  E  E  E  E   
---------------------------|---------------------------|
--------------10-----8-----|---------------------------|
--0-----7------------------|--------10-----9-----5-----|
---------------------------|--3------------------------|
---------------------------|---------------------------|
---------------------------|---------------------------|


  E  E   E  E  E  E  E  E     E  E  E  E   E  E  E  E   
---------------------------|---------------------------|
---------------------------|--------------10-----8-----|
--------10-----9-----5-----|--0-----7------------------|
--3------------------------|---------------------------|
---------------------------|---------------------------|
---------------------------|---------------------------|


  E  E  E  E   E  E  E  E     E  E   E  E  E  E  E  E   
---------------------------|---------------------------|
--------------10-----8-----|---------------------------|
--0-----7------------------|--------10-----9-----5-----|
---------------------------|--3------------------------|
---------------------------|---------------------------|
---------------------------|---------------------------|


  E  E   E  E  E  E  E  E     E  E  E  E   E  E  E  E   
---------------------------|---------------------------|
---------------------------|--------------10-----8-----|
--------10-----9-----5-----|--0-----7------------------|
--3------------------------|---------------------------|
---------------------------|---------------------------|
---------------------------|---------------------------|


  E  E  E  E   E  E  E  E     E  E   E  E  E  E  E  E   
---------------------------|---------------------------|
--------------10-----8-----|---------------------------|
--0-----7------------------|--------10-----9-----5-----|
---------------------------|--3------------------------|
---------------------------|---------------------------|
---------------------------|---------------------------|

  E  E  E  E   E  E  E  E     E  E   E  E  E  E  E  E   
---------------------------|---------------------------|
--------------10-----8-----|---------------------------|
--0-----7------------------|--------10-----9-----5-----|
---------------------------|--3------------------------|
---------------------------|---------------------------|
---------------------------|---------------------------|


  E  E   E  E  E  E  E  E    
---------------------------||
---------------------------||
--------10-----9-----5-----||
--3------------------------||
---------------------------||
---------------------------||




Duration Legend
---------------
W - whole
H - half
Q - quarter
E - 8th
S - 16th
T - 32nd
X - 64th
. - note dotted
|-n-|  - n-tuplets


Tablature Legend
----------------
L - tied note
x - dead note
g - grace note
(n) - ghost note
> - accentuded note
NH - natural harmonic
AH - artificial harmonic
TH - tapped harmonic
SH - semi harmonic
PH - pitch harmonic
h - hammer on
p - pull off
b - bend
br - bendRelease
pb - preBend
pbr - preBendRelease
brb - bendReleaseBend
\n/ - tremolo bar dip
\n - tremolo bar dive
-/n - tremolo bar Release up
/n\ - tremolo bar inverted dip
/n - tremolo bar return
-\n - tremolo bar Release down
S - shift slide
s - legato slide
/ -  slide into from below or out of upwards
\ -  slide into from above or out of downwards
~ - vibrato
W - wide vibrato
tr - trill
TP - tremolo picking
T - tapping
S - slap
P - pop
< - fade in
^ - brush up
v - brush down



Suggest correction
Give kudos to tab author, rate the tab!
1 2 3 4 5
comments
print report bad tab
guest
You may want to rate the tab now too:
select rating
Wanna post a correction for this tab? Suggest correction