Oops, an error
Loading. Please wait.

Goldener Reiter tab

64 views 1 this week
no commentswrite comment
1 2 3 4 5
2 more votes to show rating
add to favorites
×
Save as Personal and add changes to this tab that will be seen only by you. Learn more ›
×
You can save this tab as Personal to edit and correct it or add notes. All changes will be seen only by you. Learn more »
launch autoscroll
font size
0
reset
how to read this tab
guitar tuner
edit
Autoscroll
slow
fast
+/-
esc
set tempo
stop
Difficulty
About this tab version
Tab-version of "Goldener Reiter" by Joachim Witt. First Try. Hope it will be correct. Was this info helpful? Yes No
[Intro]
  G
e|--------------------------|-----------------------------|
B|--------------------------|-----------------------------|
G|--------------------------|-----------------------------|
D|--5--5--5--5--5--5--5--5--|--5--5--5--5--5--5--5--5--5--|
A|--5--5--5--5--5--5--5--5--|--5--5--5--5--5--5--5--5--5--|
E|--3--3--3--3--3--3--3--3--|--3--3--3--3--3--3--3--3--3--|

e|--------------------------|-----------------------------|
B|--------------------------|-----------------------------|
G|--------------------------|-----------------------------|
D|--5--5--5--5--5--5--5--5--|--5--5--5--5--5--5--5--5--5--|
A|--5--5--5--5--5--5--5--5--|--5--5--5--5--5--5--5--5--5--|
E|--3--3--3--3--3--3--3--3--|--3--3--3--3--3--3--3--3--3--|

e|--------------------------|-----------------------------|
B|--------------------------|-----------------------------|
G|--------------------------|-----------------------------|
D|--5--5--5--5--5--5--5--5--|--5--5--5--5--5--5--5--5--5--|
A|--5--5--5--5--5--5--5--5--|--5--5--5--5--5--5--5--5--5--|
E|--3--3--3--3--3--3--3--3--|--3--3--3--3--3--3--3--3--3--|

e|--------------------------|-----------------------------|
B|--------------------------|-----------------------------|
G|--------------------------|-----------------------------|
D|--5--5--5--5--5--5--5--5--|--5--5--5--5--5--5--5--5--5--|
A|--5--5--5--5--5--5--5--5--|--5--5--5--5--5--5--5--5--5--|
E|--3--3--3--3--3--3--3--3--|--3--3--3--3--3--3--3--3--3--|

e|--------------------------|----------------------------|
B|--------------------------|----------------------------|
G|--------------------------|----------------------------|
D|--5--5--5--5--5--5--5--5--|--5--5--5--5--5--5--5-5-5-5-|
A|--5--5--5--5--5--5--5--5--|--5--5--5--5--5--5--5-5-5-5-|
E|--3--3--3--3--3--3--3--3--|--3--3--3--3--3--3--3-3-3-3-|


[Verse 1]
  Gm                                                   Bb
e|-------------------------|--------------------------|--------------------------|
B|-------------------------|--------------------------|--------------------------|
G|-------------------------|--------------------------|--------------------------|
D|--5----5--5--5--5--5--5--|--5--5--5--5--5--5--5--5--|--8--8--8--8--8--8--8--8--|
A|--5----5--5--5--5--5--5--|--5--5--5--5--5--5--5--5--|--8--8--8--8--8--8--8--8--|
E|--3----3--3--3--3--3--3--|--3--3--3--3--3--3--3--3--|--6--6--6--6--6--6--6--6--|
  F
e|--------------------------|--------------------------|--------------------------|
B|--------------------------|--------------------------|--------------------------|
G|--------------------------|--------------------------|--------------------------|
D|--3--3--3--3--3--3--3--3--|--3--3--3--3--3--3--3--3--|--3--3--3--3--3--3--3--3--|
A|--3--3--3--3--3--3--3--3--|--3--3--3--3--3--3--3--3--|--3--3--3--3--3--3--3--3--|
E|--1--1--1--1--1--1--1--1--|--1--1--1--1--1--1--1--1--|--1--1--1--1--1--1--1--1--|
  Gm                         Bb                         F
e|--------------------------|--------------------------|--------------------------|
B|--------------------------|--------------------------|--------------------------|
G|--------------------------|--------------------------|--------------------------|
D|--5--5--5--5--5--5--5--5--|--8--8--8--8--8--8--8--8--|--3--3--3--3--3--3--3--3--|
A|--5--5--5--5--5--5--5--5--|--8--8--8--8--8--8--8--8--|--3--3--3--3--3--3--3--3--|
E|--3--3--3--3--3--3--3--3--|--6--6--6--6--6--6--6--6--|--1--1--1--1--1--1--1--1--|
                       
e|--------------------------|--------------------------|--------------------------|
B|--------------------------|--------------------------|--------------------------|
G|--------------------------|--------------------------|--------------------------|
D|--3--3--3--3--3--3--3--3--|--3--3--3--3--3--3--3--3--|--3--3--3--3--3--3--3--3--|
A|--3--3--3--3--3--3--3--3--|--3--3--3--3--3--3--3--3--|--3--3--3--3--3--3--3--3--|
E|--1--1--1--1--1--1--1--1--|--1--1--1--1--1--1--1--1--|--1--1--1--1--1--1--1--1--|



[Interlude/Break]
  Gm 
e|--------------------------|--------------------------|
B|--------------------------|--------------------------|
G|--------------------------|--------------------------|
D|--5--5--5--5--5--5--5--5--|--5--5--5--5--5--5--5--5--|
A|--5--5--5--5--5--5--5--5--|--5--5--5--5--5--5--5--5--|
E|--3--3--3--3--3--3--3--3--|--3--3--3--3--3--3--3--3--|

e|--------------------------|----------------------------|
B|--------------------------|----------------------------|
G|--------------------------|----------------------------|
D|--5--5--5--5--5--5--5--5--|--5--5--5--5--5--5--5-5-5-5-|
A|--5--5--5--5--5--5--5--5--|--5--5--5--5--5--5--5-5-5-5-|
E|--3--3--3--3--3--3--3--3--|--3--3--3--3--3--3--3-3-3-3-|


[Verse 2]
  Gm                                                   Bb
e|-------------------------|--------------------------|--------------------------|
B|-------------------------|--------------------------|--------------------------|
G|-------------------------|--------------------------|--------------------------|
D|--5----5--5--5--5--5--5--|--5--5--5--5--5--5--5--5--|--8--8--8--8--8--8--8--8--|
A|--5----5--5--5--5--5--5--|--5--5--5--5--5--5--5--5--|--8--8--8--8--8--8--8--8--|
E|--3----3--3--3--3--3--3--|--3--3--3--3--3--3--3--3--|--6--6--6--6--6--6--6--6--|
  F
e|--------------------------|--------------------------|--------------------------|
B|--------------------------|--------------------------|--------------------------|
G|--------------------------|--------------------------|--------------------------|
D|--3--3--3--3--3--3--3--3--|--3--3--3--3--3--3--3--3--|--3--3--3--3--3--3--3--3--|
A|--3--3--3--3--3--3--3--3--|--3--3--3--3--3--3--3--3--|--3--3--3--3--3--3--3--3--|
E|--1--1--1--1--1--1--1--1--|--1--1--1--1--1--1--1--1--|--1--1--1--1--1--1--1--1--|
  Gm                         Bb                         F
e|--------------------------|--------------------------|--------------------------|
B|--------------------------|--------------------------|--------------------------|
G|--------------------------|--------------------------|--------------------------|
D|--5--5--5--5--5--5--5--5--|--8--8--8--8--8--8--8--8--|--3--3--3--3--3--3--3--3--|
A|--5--5--5--5--5--5--5--5--|--8--8--8--8--8--8--8--8--|--3--3--3--3--3--3--3--3--|
E|--3--3--3--3--3--3--3--3--|--6--6--6--6--6--6--6--6--|--1--1--1--1--1--1--1--1--|
                       
e|--------------------------|--------------------------|--------------------------|
B|--------------------------|--------------------------|--------------------------|
G|--------------------------|--------------------------|--------------------------|
D|--3--3--3--3--3--3--3--3--|--3--3--3--3--3--3--3--3--|--3--3--3--3--3--3--3--3--|
A|--3--3--3--3--3--3--3--3--|--3--3--3--3--3--3--3--3--|--3--3--3--3--3--3--3--3--|
E|--1--1--1--1--1--1--1--1--|--1--1--1--1--1--1--1--1--|--1--1--1--1--1--1--1--1--|



[Chorus]
  G
e|--------------------------|--------------------------|
B|--------------10-----8----|--------------10-----8----|
G|--0-----7-----------------|--0-----7-----------------|
D|--------------------------|--------------------------|
A|--------------------------|--------------------------|
E|--------------------------|--------------------------|
  F
e|--------------------------|--------------------------|   
B|--------------------------|--------------------------|
G|--------10-----9----------|--------10-----9----------|
D|--------------------10----|--------------------10----|
A|--8-----------------------|--8-----------------------|
E|--------------------------|--------------------------|
  G
e|--------------------------|--------------------------|
B|--------------10-----8----|--------------10-----8----|
G|--0-----7-----------------|--0-----7-----------------|
D|--------------------------|--------------------------|
A|--------------------------|--------------------------|
E|--------------------------|--------------------------|
  F
e|--------------------------|--------------------------|   
B|--------------------------|--------------------------|
G|--------10-----9----------|--------10-----9----------|
D|--------------------10----|-------------------10-----|
A|--8-----------------------|--8-----------------------|
E|--------------------------|--------------------------|
  G
e|--------------------------|--------------------------|
B|--------------10-----8----|--------------10-----8----|
G|--0-----7-----------------|--0-----7-----------------|
D|--------------------------|--------------------------|
A|--------------------------|--------------------------|
E|--------------------------|--------------------------|
  F
e|--------------------------|--------------------------|   
B|--------------------------|--------------------------|
G|--------10-----9----------|--------10-----9----------|
D|--------------------10----|--------------------10----|
A|--8-----------------------|--8-----------------------|
E|--------------------------|--------------------------|
  G
e|--------------------------|--------------------------|
B|--------------10-----8----|--------------10-----8----|
G|--0-----7-----------------|--0-----7-----------------|
D|--------------------------|--------------------------|
A|--------------------------|--------------------------|
E|--------------------------|--------------------------|
  F
e|--------------------------|--------------------------|   
B|--------------------------|--------------------------|
G|--------10-----9----------|--------------------------|
D|--------------------10----|--10~~~~~~~~~~~~~~~~------|
A|--8-----------------------|--------------------------|
E|--------------------------|--------------------------|


[Verse 3]
  Gm                                                   Bb
e|-------------------------|--------------------------|--------------------------|
B|-------------------------|--------------------------|--------------------------|
G|-------------------------|--------------------------|--------------------------|
D|--5----5--5--5--5--5--5--|--5--5--5--5--5--5--5--5--|--8--8--8--8--8--8--8--8--|
A|--5----5--5--5--5--5--5--|--5--5--5--5--5--5--5--5--|--8--8--8--8--8--8--8--8--|
E|--3----3--3--3--3--3--3--|--3--3--3--3--3--3--3--3--|--6--6--6--6--6--6--6--6--|
  F
e|--------------------------|--------------------------|--------------------------|
B|--------------------------|--------------------------|--------------------------|
G|--------------------------|--------------------------|--------------------------|
D|--3--3--3--3--3--3--3--3--|--3--3--3--3--3--3--3--3--|--3--3--3--3--3--3--3--3--|
A|--3--3--3--3--3--3--3--3--|--3--3--3--3--3--3--3--3--|--3--3--3--3--3--3--3--3--|
E|--1--1--1--1--1--1--1--1--|--1--1--1--1--1--1--1--1--|--1--1--1--1--1--1--1--1--|
  Gm                         Bb                         F
e|--------------------------|--------------------------|--------------------------|
B|--------------------------|--------------------------|--------------------------|
G|--------------------------|--------------------------|--------------------------|
D|--5--5--5--5--5--5--5--5--|--8--8--8--8--8--8--8--8--|--3--3--3--3--3--3--3--3--|
A|--5--5--5--5--5--5--5--5--|--8--8--8--8--8--8--8--8--|--3--3--3--3--3--3--3--3--|
E|--3--3--3--3--3--3--3--3--|--6--6--6--6--6--6--6--6--|--1--1--1--1--1--1--1--1--|
                       
e|--------------------------|--------------------------|--------------------------|
B|--------------------------|--------------------------|--------------------------|
G|--------------------------|--------------------------|--------------------------|
D|--3--3--3--3--3--3--3--3--|--3--3--3--3--3--3--3--3--|--3--3--3--3--3--3--3--3--|
A|--3--3--3--3--3--3--3--3--|--3--3--3--3--3--3--3--3--|--3--3--3--3--3--3--3--3--|
E|--1--1--1--1--1--1--1--1--|--1--1--1--1--1--1--1--1--|--1--1--1--1--1--1--1--1--|

[Chorus] 

[Interlude/Break] 6x 
 Gm PM PM PM PM PM PM PM PM    PM PM PM PM PM PM PM PM 
e|--------------------------|--------------------------|
B|--------------------------|--------------------------|
G|--------------------------|--------------------------|
D|--5--5--5--5--5--5--5--5--|--5--5--5--5--5--5--5--5--|
A|--5--5--5--5--5--5--5--5--|--5--5--5--5--5--5--5--5--|
E|--3--3--3--3--3--3--3--3--|--3--3--3--3--3--3--3--3--|


[Chorus]
  G
e|--------------------------|--------------------------|
B|--------------10-----8----|--------------10-----8----|
G|--0-----7-----------------|--0-----7-----------------|
D|--------------------------|--------------------------|
A|--------------------------|--------------------------|
E|--------------------------|--------------------------|
  F
e|--------------------------|--------------------------|   
B|--------------------------|--------------------------|
G|--------10-----9----------|--------10-----9----------|
D|--------------------10----|--------------------10----|
A|--8-----------------------|--8-----------------------|
E|--------------------------|--------------------------|
  G
e|--------------------------|--------------------------|
B|--------------10-----8----|--------------10-----8----|
G|--0-----7-----------------|--0-----7-----------------|
D|--------------------------|--------------------------|
A|--------------------------|--------------------------|
E|--------------------------|--------------------------|
  F
e|--------------------------|--------------------------|   
B|--------------------------|--------------------------|
G|--------10-----9----------|--------10-----9----------|
D|--------------------10----|-------------------10-----|
A|--8-----------------------|--8-----------------------|
E|--------------------------|--------------------------|
  G
e|--------------------------|--------------------------|
B|--------------10-----8----|--------------10-----8----|
G|--0-----7-----------------|--0-----7-----------------|
D|--------------------------|--------------------------|
A|--------------------------|--------------------------|
E|--------------------------|--------------------------|
  F
e|--------------------------|--------------------------|   
B|--------------------------|--------------------------|
G|--------10-----9----------|--------------------------|
D|--------------------10----|--------------------------|
A|--8-----------------------|--8\0----------(8\0)------|
E|--------------------------|--------------------------|
  G
e|--------------------------|--------------------------|
B|--------------10-----8----|--------------10-----8----|
G|--0-----7-----------------|--0-----7-----------------|
D|--------------------------|--------------------------|
A|--------------------------|--------------------------|
E|--------------------------|--------------------------|
  F
e|--------------------------|--------------------------|   
B|--------------------------|--------------------------|
G|--------10-----9----------|--------------------------|
D|--------------------10----|--10~~~~~~~~~~~~~~~~------|
A|--8-----------------------|--------------------------|
E|--------------------------|--------------------------|


[Verse 4]
  Gm                                                   Bb
e|-------------------------|--------------------------|--------------------------|
B|-------------------------|--------------------------|--------------------------|
G|-------------------------|--------------------------|--------------------------|
D|--5----5--5--5--5--5--5--|--5--5--5--5--5--5--5--5--|--8--8--8--8--8--8--8--8--|
A|--5----5--5--5--5--5--5--|--5--5--5--5--5--5--5--5--|--8--8--8--8--8--8--8--8--|
E|--3----3--3--3--3--3--3--|--3--3--3--3--3--3--3--3--|--6--6--6--6--6--6--6--6--|
  F
e|--------------------------|--------------------------|--------------------------|
B|--------------------------|--------------------------|--------------------------|
G|--------------------------|--------------------------|--------------------------|
D|--3--3--3--3--3--3--3--3--|--3--3--3--3--3--3--3--3--|--3--3--3--3--3--3--3--3--|
A|--3--3--3--3--3--3--3--3--|--3--3--3--3--3--3--3--3--|--3--3--3--3--3--3--3--3--|
E|--1--1--1--1--1--1--1--1--|--1--1--1--1--1--1--1--1--|--1--1--1--1--1--1--1--1--|
  Gm                         Bb                         F
e|--------------------------|--------------------------|--------------------------|
B|--------------------------|--------------------------|--------------------------|
G|--------------------------|--------------------------|--------------------------|
D|--5--5--5--5--5--5--5--5--|--8--8--8--8--8--8--8--8--|--3--3--3--3--3--3--3--3--|
A|--5--5--5--5--5--5--5--5--|--8--8--8--8--8--8--8--8--|--3--3--3--3--3--3--3--3--|
E|--3--3--3--3--3--3--3--3--|--6--6--6--6--6--6--6--6--|--1--1--1--1--1--1--1--1--|
                       
e|--------------------------|--------------------------|--------------------------|
B|--------------------------|--------------------------|--------------------------|
G|--------------------------|--------------------------|--------------------------|
D|--3--3--3--3--3--3--3--3--|--3--3--3--3--3--3--3--3--|--3--3--3--3--3--3--3--3--|
A|--3--3--3--3--3--3--3--3--|--3--3--3--3--3--3--3--3--|--3--3--3--3--3--3--3--3--|
E|--1--1--1--1--1--1--1--1--|--1--1--1--1--1--1--1--1--|--1--1--1--1--1--1--1--1--|


[Chorus] (a little bit different)
  G
e|--------------------------|--------------------------|
B|--------------10-----8----|--------------10-----8----|
G|--0-----7-----------------|--0-----7-----------------|
D|--------------------------|--------------------------|
A|--------------------------|--------------------------|
E|--------------------------|--------------------------|
  F
e|--------------------------|--------------------------|   
B|--------------------------|--8-----------------------|
G|--------10-----9----------|--------10-----9----10----|
D|--------------------10----|--------------------------|
A|--8-----------------------|--------------------------|
E|--------------------------|--------------------------|
  G
e|--------------------------|--------------------------|
B|--------------10-----8----|--------------10-----8----|
G|--0-----7-----------------|--0-----7-----------------|
D|--------------------------|--------------------------|
A|--------------------------|--------------------------|
E|--------------------------|--------------------------|
  F
e|--------------------------|--------------------------|   
B|--------------------------|--8-----------------------|
G|--------10-----9----------|--------10-----9----10----|
D|--------------------10----|--------------------------|
A|--8-----------------------|--------------------------|
E|--------------------------|--------------------------|
  G
e|--------------------------|--------------------------|
B|--------------10-----8----|--------------10-----8----|
G|--0-----7-----------------|--0-----7-----------------|
D|--------------------------|--------------------------|
A|--------------------------|--------------------------|
E|--------------------------|--------------------------|
  F
e|--------------------------|--------------------------|   
B|--------------------------|--8-----------------------|
G|--------10-----9----------|--------10-----9----10----|
D|--------------------10----|--------------------------|
A|--8-----------------------|--------------------------|
E|--------------------------|--------------------------|
  G
e|--------------------------|--------------------------|
B|--------------10-----8----|--------------10-----8----|
G|--0-----7-----------------|--0-----7-----------------|
D|--------------------------|--------------------------|
A|--------------------------|--------------------------|
E|--------------------------|--------------------------|
 runs into outro
e|--------------------------|--------------------------|   
B|--------------------------|--8-----------------------|
G|--------10-----9----------|--------10-----9----10----|
D|--------------------10----|--------------------------|
A|--8-----------------------|--------------------------|
E|--------------------------|--------------------------| .........


************************************

| x   Dead note
| g   Grace note
| (n) Ghost note
| h   Hammer-on
| p   Pull-off
| r   Release
| >   Accented note
| t   Tapping
| b   Bend
| br  Bend release
| pb  Pre-bend
| pbr Pre-bend release
| /   Slide up
| \   Slide down
| ~   Vibrato
| s   Slap
| P   Pop
| PM  Palm mute
| TR  Trill
| N   Tremolo

************************************

            
            
Suggest correction
Creating personal tab
Creating personal tab
You can edit any tab online and save it as your Personal.

You can edit, replace or remove any tab part or add personal notes – all changes will be seen only by you.

Personal tabs can be accessed anytime from any device, even offline.
Learn more »
Give kudos to tab author, rate the tab!
1 2 3 4 5
comments
print report bad tab
guest
Wanna post a correction for this tab? Suggest correction