Oops, an error
Loading. Please wait.

The Ace Of Hearts tab

103 views 1 this week
no commentswrite comment
1 2 3 4 5
3 more votes to show rating
add to favorites
×
Save as Personal and add changes to this tab that will be seen only by you. Learn more ›
×
You can save this tab as Personal to edit and correct it or add notes. All changes will be seen only by you. Learn more »
launch autoscroll
font size
0
reset
how to read this tab
guitar tuner
edit
Autoscroll
slow
fast
+/-
esc
set tempo
stop
From the album 'In concert part 2'
Note that the song sounds sharp of F#m

[Introduction] 
   Em
e|-----3--------|-----3-------|------3--------|-----3-------|
B|-----5--------|-----5-------|------5--------|-----5-------|
G|---4----4---4-|---4---4---4-|---4-----4---4-|---4---4---4-|
D|--------------|-2-----------|---------------|-2-----------|
A|----------2---|---------2---|-----------2---|---------2---|
e|-0------------|-------------|-0-------------|-------------|
                                                     To the

[Verse]
    C              Em           B7              Em
e|-----0--------|-----3-------|------2--------|-----3-------|
B|-----1--------|-----5-------|------4--------|-----5-------|
G|---0----0---0-|---4---4---4-|---2-----2---2-|---4---4---4-|
D|--------------|-2-----------|-4-------------|-2-----------|
A|-3--------2---|---------2---|-----------2---|---------2---|
e|--------------|-------------|---------------|-------------|
    queen     of   hearts is the  ace      of     sorrow  He's

   C              B7                           Em
e|-----0--------|-----2-------|-----2-------|------3--------|
B|-----1--------|-----4-------|-----4-------|------5--------|
G|---0----0---0-|---2---2---2-|---2---2---2-|---4-----4---4-|
D|----------2---|---------4---|---------4---|---------------|
A|-3------------|-2-----------|-2-----------|-----------2---|
e|--------------|-------------|-------------|-0-------------|
   here      to - day,     he's gone      to   morrow  

                  C              Em            B7              Em
e|-----3--------|-----0--------|-----3-------|------2--------|-----3-------|
B|-----5--------|-----1--------|-----5-------|------4--------|-----5-------|
G|---4---4---4--|---0----0---0-|---4---4---4-|---2-----2---2-|---4---4---4-|
D|-2------------|--------------|-2-----------|-4-------------|-2-----------|
A|---------2----|-3--------2---|---------2---|-----------2---|---------2---|
e|--------------|--------------|-------------|---------------|-------------|
             Young men     are   plenty but    sweethearts     few        If

   C              B7                           Em
e|-----0--------|-----2--------|-----2-------|------3--------|
B|-----1--------|-----4--------|-----4-------|------5--------|
G|---0----0---0-|---2----2---2-|---2---2---2-|---4-----4---4-|
D|----------2---|----------4---|---------4---|-2-------------|
A|-3------------|-2------------|-2-----------|-----------2---|
e|--------------|--------------|-------------|---------------|
   my        love leaves   me    what shall  I do?

   Em
e|------3--------|-----3--------|-----3-------|
B|------5--------|-----5--------|-----5-------|
G|---4-----4---4-|---4----4---4-|---4---4---4-|
D|-2-------------|--------------|-2-----------|
A|-----------2---|----------2---|---------2---|
e|---------------|-0------------|-------------|
                                            Had..  

[Verse 1]
Em     C        Em            B7     Em
To the queen of hearts is the ace of sorrow
     C       B7               Em
He's here  today, he's gone tomorrow     
      C       Em         B7          Em     
Young men are plenty but sweethearts few
   C       B7                     Em
If my love leaves me what shall I do?

[Verse 2]
    C      Em      B7         Em
Had I the store in yonder mountain
      C        B7                      Em
Where gold and silver is there for counting
   C        Em        B7         Em     
I could not count for thought of thee
   C       B7               Em
My eyes so full I could not see

[Verse 3]
  C       Em        B7      Em
I love my father, I love my mother
  C       B7                Em
I love my sister, I love my brother
  C       Em          B7        Em     
I love my friends and relatives too
        C         B7              Em
I'll forsake them all and go with you

[Verse 4]
       C        Em            B7     Em
To the queen of hearts is the ace of sorrow
     C       B7               Em
He's here  today, he's gone tomorrow     
      C       Em         B7          Em     
Young men are plenty but sweethearts few
   C       B7                     Em
If my love leaves me what shall I do?

            
            
Suggest correction
Creating personal tab
Creating personal tab
You can edit any tab online and save it as your Personal.

You can edit, replace or remove any tab part or add personal notes – all changes will be seen only by you.

Personal tabs can be accessed anytime from any device, even offline.
Learn more »
Give kudos to tab author, rate the tab!
1 2 3 4 5
comments
print report bad tab
guest
You may want to rate the tab now too:
select rating
Wanna post a correction for this tab? Suggest correction