Oops, an error
Loading. Please wait.

Crimson And Clover Tab

version 1
version 1

Whole song

Interactive

44,306 views 24 this week
no commentswrite comment
1 2 3 4 5
accurate
x 4
add to favorites
launch autoscroll
font size
0
reset
how to read this tab
guitar tuner
Tab Pro tools
  • play this tab
  • loop segment
  • change instrument
  • show fretboard
  • metronome
×
Best way to learn
"Crimson And Clover"
Autoscroll
slow
fast
+/-
esc
set tempo
stop
Contributor
Difficulty
novice
-------------------------------------------------------------------------------
                             SONG NAME - Band Name
-------------------------------------------------------------------------------
Tabbed by:Terry Maxwell
Email:bunnybuns25@aol.com

Tuning:eadgbe

e|-----------------------------------------------------------------------------|
B|-----------------------------------------------------------------------------|
G|--5--5------------------5--5-------------------------------------------------|
D|--5--5--5--5----3--3----5--5--5--5----3--3-----------------------------------|
A|--3--3--5--5----3--3----3--3--5--5----3--3-----------------------------------|
E|--------3--3----1--1----------3--3----1--1-----------------------------------|

e|------------------------------------------------------------------------------|
B|------------------------------------------------------------------------------|
G|---5--5------------------5--5-------------------------------------------------|
D|---5--5--5--5----3--3----5--5--5--5----3--3-----------------------------------|
A|---3--3--5--5----3--3----3--3--5--5----3--3-----------------------------------|
E|---------3--3----1--1----------3--3----1--1-----------------------------------|

e|---------------------------------------------------------------------------|
B|---------------------------------------------------------------------------|
G|--------------------------------5--5--5--5--5--------------3--3------------|
D|---3--3---3--3---3---5--5--5----5--5--5--5--5--5--5--3--3--3--3------------|
A|---3--3---3--3---3---5--5--5----3--3--3--3--3--5--5--3--3--1--1------------|
E|---1--1---1--1---1---3--3--3-------------------3--3--1--1------------------|
Repeat as it sounds
comments
print report bad tab
I want to post or [tab]
guest
You may want to rate the tab now too:
select rating
Please do not post tabs as comments. Select "correction" instead!