Oops, an error
Loading. Please wait.
We have an official I Love Rock N Roll tab made by UG professional guitarists. Check out the tab »
×

I Love Rock N Roll bass

24,935 views 30 this week
4 commentsread comments
1 2 3 4 5
x 29
add to favorites
×
Save as Personal and add changes to this tab that will be seen only by you. Learn more ›
×
You can save this tab as Personal to edit and correct it or add notes. All changes will be seen only by you. Learn more »
launch autoscroll
font size
0
reset
guitar tuner
edit
Autoscroll
slow
fast
+/-
esc
set tempo
stop
Author
Difficulty
Artist: Joan Jett & The Blackhearts
Song: I love Rock N' Roll

[Intro]
G|----------|---------------|---------------|---------------|------------|
D|----------|---------------|---------------|---------------|------------|
A|----------|-7-7----7-7----|---------------|-7-7----7-7----|------------|
E|----------|---------------|-5-5----7-7----|---------------|-5-5----7-0-|

G|-------------|-------------------|
D|-------------|-------------------|
A|-7-7---------|-7-7----7-5--------|
E|-------------|------------7-5-3--|

[Verse] 
G|--------------|-------------------|-------------|-------------------|----------------|
D|--------------|-------------------|-------------|-------------------|----------------|
A|--------------|-7-7----7-5--------|-------------|--------7-5--------|----------------|
E|--0-0---------|------------7-5-3--|-0-0---------|-7-7--------7-5-3--|-5-5----7-7-----|

G|--------|----------|--------|----------|----------|-----------------|
D|--------|----------|--------|----------|----------|-----------------|
A|-7-7----|----------|--------|----------|----------|-----------------|
E|--------|-5--------|-(5)----|----------|----------|-7-7-7-7-7-7-7-7-|

[Chorus]
G|---------------|---------------|---------------|------------|-------------|--------------------|
D|---------------|---------------|---------------|------------|-------------|--------------------|
A|-7-7----7-7----|---------------|-7-7----7-7----|------------|-7-7---------|-7-7----7-5---------|
E|---------------|-5-5----7-7----|---------------|-5-5----7-0-|-------------|------------7-5-3---|

[Verse]
G|--------------|-------------------|-------------|-------------------|----------------|
D|--------------|-------------------|-------------|-------------------|----------------|
A|--------------|-7-7----7-5--------|-------------|--------7-5--------|----------------|
E|--0-0---------|------------7-5-3--|-0-0---------|-7-7--------7-5-3--|-5-5----7-7-----|

G|--------|----------|--------|----------|----------|-----------------|
D|--------|----------|--------|----------|----------|-----------------|
A|-7-7----|----------|--------|----------|----------|-----------------|
E|--------|-5--------|-(5)----|----------|----------|-7-7-7-7-7-7-7-7-|

[Chorus]
G|---------------|---------------|---------------|------------|-------------|--------------------|
D|---------------|---------------|---------------|------------|-------------|--------------------|
A|-7-7----7-7----|---------------|-7-7----7-7----|------------|-7-7---------|-7-7----7-5---------|
E|---------------|-5-5----7-7----|---------------|-5-5----7-0-|-------------|------------7-5-3---|

[Guitar Solo]
G|-------------|-------------------|-------------|-------------------|---------------|--------|
D|-------------|-------------------|-------------|-------------------|---------------|--------|
A|-------------|-7-7----7-5--------|-------------|--------7-5--------|---------------|-7-7----|
E|-0-0---------|------------7-5-3--|-0-0---------|-7-7--------7-5-3--|-5-5----7-7----|--------|

G|----------|------------|--------|--------|--------|--------|--------|--------|--------|
D|----------|------------|--------|--------|--------|--------|--------|--------|--------|
A|----------|------------|--------|--------|--------|--------|--------|--------|--------|
E|-5--------|-(5)--------|--------|--------|--------|--------|--------|--------|--------|

[Outro]
G|----------------|---------------|---------------|-------------|
D|o---------------|---------------|---------------|------------o|
A|o-7-7----7-7----|---------------|-7-7----7-7----|------------o|
E|----------------|-5-5----7-7----|---------------|-5-5----7-0--|


************************************

| (n)  Ghost note

************************************

            
            
Suggest correction
Creating personal tab
Creating personal tab
You can edit any tab online and save it as your Personal.

You can edit, replace or remove any tab part or add personal notes – all changes will be seen only by you.

Personal tabs can be accessed anytime from any device, even offline.
Learn more »
comments
print report bad tab
4 comments total. Showing first comments.
0 reply
RickyRubio 536 Oct 28, 2014 06:28 AM

First absolut correct version, thank you a lot!

0 reply
jwhughesjr 10 Jun 03, 2016 05:02 PM

Worst thing my friend has ever seen! This is a really bad tab!!!! Never should ever listen to it!!!

0 reply
patrickvallee.qc 10 Jan 01, 2017 10:40 PM

correct or not ?

guest
You may want to rate the tab now too:
select rating
Wanna post a correction for this tab? Suggest correction