Oops, an error
Loading. Please wait.
We have an official I Love Rock N Roll tab made by UG professional guitarists. Check out the tab »
×
482,826 views 198 this week
25 commentsread comments
1 2 3 4 5
x 181
add to favorites
launch autoscroll
font size
0
reset
how to read this tab
guitar tuner
Autoscroll
slow
fast
+/-
esc
set tempo
stop
Author
Difficulty
intermediate
Cause i really hated the little mistakes.

First tab.

i am sure this is 99% correct. to me it sounds perfect if you don't like it . drop dead

Guitar 1 - E A D G B E
Guitar 2 - E A D G B E
Bass     - E A D G


Guitar 1+2

    E E     E E           A A     B B 
e|-------------------------------------------------|
B|-------------------------------------------------|
G|------------------------2-2-----4-4--------------|
D|--2-2-----2-2-----------2-2-----4-4--------------|
A|--2-2-----2-2-----------0-0-----2-2--------------|
E|--0-0-----0-0-0H3B~-------------------0H3B~------|

    E E     E E           A A     B A 
e|-------------------------------------------------|
B|-------------------------------------------------|
G|------------------------2-2-----4-2--------------|
D|--2-2-----2-2-----------2-2-----4-2-2---------2--|
A|--2-2-----2-2-----------0-0-----2-0-2---------2--|
E|--0-0-----0-0-0H3B~-----------------0---------0--|


Guitar 1 Riff

e|--------------------------------|
B|---15B--12~---------------------|
G|------------14--12~-------------|
D|--------------------------------|
A|--------------------------------|
E|--------------------------------|


Guitar 2 Riff Played same time as guitar 1

e|--------------------------------|
B|--3P0---------------------------|
G|-------2P0----------------------|
D|-----------2~-------------------|
A|--------------------------------|
E|--------------------------------|


Guitar 1+2

    E E             E E
e|-------------------------------------------------|
B|-------------------------------------------------|
G|-------------------------------------------------|
D|--2-2-------------2-2----------------------------|
A|--2-2-------------2-2----------------------------|
E|--0-0-------------0-0----------------------------|


Guitar 1 Riff Played same time as guitar 1

e|--------------------------------|
B|---15B--12~---------------------|
G|------------14--12~-------------|
D|--------------------------------|
A|--------------------------------|
E|--------------------------------|


Guitar 2 Riff

e|--------------------------------|
B|--3P0---------------------------|
G|-------2P0----------------------|
D|-----------2~-------------------|
A|--------------------------------|
E|--------------------------------|


Guitar 1+2

   E E              B B
e|-------------------------------------------------|
B|-------------------------------------------------|
G|------------------4--4---------------------------|
D|--2-2-------------4--4---------------------------|
A|--2-2-------------2--2---------------------------|
E|--0-0--------------------------------------------|


Guitar 1 Riff Played same time as guitar 1

e|--------------------------------|
B|---15B--12~---------------------|
G|------------14--12~-------------|
D|--------------------------------|
A|--------------------------------|
E|--------------------------------|

Guitar 2 Riff, same time as riff 1

e|--------------------------------|
B|--3P0---------------------------|
G|-------2P0----------------------|
D|-----------2~-------------------|
A|--------------------------------|
E|--------------------------------|


Guitar 1+2

    E E             E E
e|----------------------------------------|
B|----------------------------------------|
G|--2-2----4-4-----------------2~~~-------|
D|--2-2----4-4---------2-2-----2~~~-------|
A|--0-0----2-2---------2-2-----0~~~-------|
E|---------------------0-0----------------|

Drums + vocal.


guitar 1  + 2 

e|--------------------------------|
B|--------------------------------|
G|---4-4-4-4-4-4-4----------------|
D|---4-4-4-4-4-4-4----------------|
A|---2-2-2-2-2-2-2----------------|
E|--------------------------------|

All over again:

Guitar 1+2

    E E     E E           A A     B B 
e|-------------------------------------------------|
B|-------------------------------------------------|
G|------------------------2-2-----4-4--------------|
D|--2-2-----2-2-----------2-2-----4-4--------------|
A|--2-2-----2-2-----------0-0-----2-2--------------|
E|--0-0-----0-0-0H3B~-------------------0H3B~------|

    E E     E E           A A     B A 
e|-------------------------------------------------|
B|-------------------------------------------------|
G|------------------------2-2-----4-2--------------|
D|--2-2-----2-2-----------2-2-----4-2-2---------2--|
A|--2-2-----2-2-----------0-0-----2-0-2---------2--|
E|--0-0-----0-0-0H3B~-----------------0---------0--|


Guitar 1 Riff

e|--------------------------------|
B|---15B--12~---------------------|
G|------------14--12~-------------|
D|--------------------------------|
A|--------------------------------|
E|--------------------------------|


Guitar 2 Riff Played same time as guitar 1

e|--------------------------------|
B|--3P0---------------------------|
G|-------2P0----------------------|
D|-----------2~-------------------|
A|--------------------------------|
E|--------------------------------|


Guitar 1+2

    E E             E E
e|-------------------------------------------------|
B|-------------------------------------------------|
G|-------------------------------------------------|
D|--2-2-------------2-2----------------------------|
A|--2-2-------------2-2----------------------------|
E|--0-0-------------0-0----------------------------|


Guitar 1 Riff Played same time as guitar 1

e|--------------------------------|
B|---15B--12~---------------------|
G|------------14--12~-------------|
D|--------------------------------|
A|--------------------------------|
E|--------------------------------|


Guitar 2 Riff

e|--------------------------------|
B|--3P0---------------------------|
G|-------2P0----------------------|
D|-----------2~-------------------|
A|--------------------------------|
E|--------------------------------|


Guitar 1+2

   E E              B B
e|-------------------------------------------------|
B|-------------------------------------------------|
G|------------------4--4---------------------------|
D|--2-2-------------4--4---------------------------|
A|--2-2-------------2--2---------------------------|
E|--0-0--------------------------------------------|


Guitar 1 Riff Played same time as guitar 1

e|--------------------------------|
B|---15B--12~---------------------|
G|------------14--12~-------------|
D|--------------------------------|
A|--------------------------------|
E|--------------------------------|


Guitar 2 Riff, same time as riff 1

e|--------------------------------|
B|--3P0---------------------------|
G|-------2P0----------------------|
D|-----------2~-------------------|
A|--------------------------------|
E|--------------------------------|


Guitar 1+2

    E E             E E
e|----------------------------------------|
B|----------------------------------------|
G|--2-2----4-4-----------------2~~~-------|
D|--2-2----4-4---------2-2-----2~~~-------|
A|--0-0----2-2---------2-2-----0~~~-------|
E|---------------------0-0----------------|

Drums + vocal....


guitar 1  + 2 

e|--------------------------------|
B|--------------------------------|
G|---4-4-4-4-4-4-4----------------|
D|---4-4-4-4-4-4-4----------------|
A|---2-2-2-2-2-2-2----------------|
E|--------------------------------|


[SOLO DURING CHORDS]


GUITAR 2

e|-------------------------------------------------------------|
B|-------------------------------------------------------------|
G|--------------------4-----4-----4------2-2--4-4---------2~~~-|
A|--2-----2-----2-----2-----2-----2------0-0--2-2--2-2----0~~~-|
E|--0-----0-----0----------------------------------0-0---------|


[Solo]

GUITAR 1
                      Tremlo down
e|-----------------------------|
B|-----------------------------|
G|----------------------7~~~---|
D|--2-2-----------------6~~~---|
A|--2-2-----------------7~~~---|
E|--0-0--2B----2B--0-----------|

e|------------------------12-----------------------|
B|---------------------------------12-----12-------|
G|---------9--11-----11B------11B---------11B------|
D|----9/11-----------------------------------------|
A|-------------------------------------------------|
E|-------------------------------------------------|

e|-----------------------------------|
B|--------------------------12-------|
G|---9----9H11------------9----------|
D|-----11--------XX--9H11------------|
A|-----------------------------------|
E|-----------------------------------|

e|----------------------------------------------------|
B|----------------------------------------------------|
G|--9-X-9/8---8-X-8/6---6-X-6/4---4-X-4/2----2-X-2/1--|
D|----------------------------------------------------|
A|----------------------------------------------------|
E|----------------------------------------------------|


e|--------------------|
B|--------------------|
G|--1-1-1-------------|
D|--------4-2---2~----|
A|------------4-------|
E|--------------------|

END OF SOLO

CONTINEU PLAYING THIS TILL END OF SONG:

GUITAR 1 + 2

Riff stops here.

    E E     E E           A A     B B 
e|-------------------------------------------------|
B|-------------------------------------------------|
G|------------------------2-2-----4-4--------------|
D|--2-2-----2-2-----------2-2-----4-4--------------|
A|--2-2-----2-2-----------0-0-----2-2--------------|
E|--0-0-----0-0-0H3B~-------------------0H3B~------|


The end.


Looks perfect to me . i hope it helps :) please comment

Tab BY  Don G.

********************************
B  = bend
~  = vibrato
H  = Hammer on 
/  = slide to
X  = muted tone
~T = Tremlo vibrato
********************************
Suggest correction
comments
print report bad tab
25 comments total. Showing first comments.
+1 reply
s.t.king 10 Jul 25, 2008 04:38 PM

Hey not bad it sounds right to me

+3 reply
Kiguitrock 10 Dec 20, 2008 04:06 PM

Awsome thanks man

+7 reply
Izi_15 10 Dec 30, 2008 04:13 PM

The best version so far.. Keep up the good tabbing!

guest
You may want to rate the tab now too:
select rating
Wanna post a correction for this tab? Suggest correction