Oops, an error
Loading. Please wait.

I Love Rock N Roll Tab

version 4
version 4
323,305 views 27 this week
5 commentsread comments
1 2 3 4 5
x 13
add to favorites
launch autoscroll
font size
0
reset
how to read this tab
guitar tuner
Autoscroll
slow
fast
+/-
esc
set tempo
stop
Help us to improve Ultimate-Guitar.com Take our survey!
×
Author
(2 Guitars play this song)
[Chords]
    EADGBE
E5 (0799xx)
A5 (x022xx)
B5 (x244xx)

e|--------------------|                 E|----------------|
B|-15b17r15-12--------| the other       B|----------------|
G|-------------14-12--| guitar plays    G|----------------|
D|--------------------| at the same     D|-2p0------------|
A|--------------------| time this--->   A|-----2--0-------|
E|--------------------|                 E|----------3-----|
          
[Intro]
(Intro starts with drums and then comes this)
    E5         E5              A5        B5
e|---------------------------------------------------|
B|---------------------------------------------------|
G|--9--9-------9--9------------2--2------4--4--------|
D|--9--9-------9--9------------2--2------4--4--------|
A|--7--7-------7--7------------0--0------2--2--------|
E|--0--0-------0--0-------3b4-------------------3b4--|

    E5         E5              A5        B5   E5
e|----------------------------------------------------|
B|----------------------------------------------------|
G|--9--9-------9--9------------2--2------4----9--9----|
D|--9--9-------9--9------------2--2------4----9--9----|
A|--7--7-------7--7------------0--0------2----7--7----|
E|--0--0-------0--0-------3b4--------------0--0--0----|

     E5
e|----------------------------------|
B|--------------15b17r15-12---------|  (That's the whole intro.)
G|---9--9-------------------14-12---|
D|---9--9---------------------------|
A|---7--7---------------------------|
E|---0--0---------------------------|

(Here's what you play in the verses)
    E5                      E5
e|--------------------------------------------------------|
B|-------------------------------------15b17r15-12--------|
G|--9--9--------------------9--9-------------------14-12--|
D|--9--9--------------------9--9--------------------------|
A|--7--7--------------------7--7--------------------------|
E|--0--0--------------------0--0--------------------------|

     E5                      B5
e|--------------------------------------------------------|
B|-------------------------------------15b17r15-12--------|
G|--9--9--------------------4--4-------------------14-12--|
D|--9--9--------------------4--4--------------------------|
A|--7--7--------------------2--2--------------------------|
E|--0--0--------------------------------------------------|

    A5         B5         E5         A5
e|--------------------------------------------------------|
B|--------------------------------------------------------|
G|--2--2-------4--4-------9--9-------2--------------------|
D|--2--2-------4--4-------9--9-------2--------------------|
A|--0--0-------2--2-------7--7-------0--------------------|
E|------------------------0--0----------------------------|

          B5
e|--------------------------|
B|--------------------------|
G|--------4-4-4-4-4-4-4-4---|
D|--------4-4-4-4-4-4-4-4---|
A|--------2-2-2-2-2-2-2-2---|
E|--------------------------|

[Verse 1]
  E5                                    E5
I saw him dancin' there by the record machine
  E5                              B5
I knew he must've been about seventeen
    A5             B5      E5                  A5
The beat was going strong, playin' my favorite song
        [guitar stops]
And I could tell it wouldn't be long till he was with me, yeah,me
                                                      B5
And I could tell it wouldn't be long till he was with me, yeah me,

[Here's how you play the first two choruses]
      E5         E5              A5        B5
E|---------------------------------------------------|
B|---------------------------------------------------|
G|--9--9-------9--9------------2--2------4--4--------|
D|--9--9-------9--9------------2--2------4--4--------|
A|--7--7-------7--7------------0--0------2--2--------|
E|--0--0-------0--0-------3b4------------------------|

      E5         E5              A5        B5   E5
E|----------------------------------------------------|
B|----------------------------------------------------|
G|--9--9-------9--9------------2--2------4----9--9----|
D|--9--9-------9--9------------2--2------4----9--9----|
A|--7--7-------7--7------------0--0------2----7--7----|
E|--0--0-------0--0-------3b4--------------0--0--0----|

    E5
E|----------------------------------|
B|--------------15b17r15-12---------|
G|---9--9-------------------14-12---|
D|---9--9---------------------------|
A|---7--7---------------------------|
E|---0--0---------------------------|

[Chorus]
E5     E5
I love Rock'n'Roll,
   A5                      B5
so put another dime in the jukebox baby
E5     E5
I love Rock'n'Roll,
   A5                          B5         E5
so come and take your time and dance with me

[Verse 2]
He smiled so I got up and asked for his name
"That don't matter,"he said,"'cause it's all the same"
I said, "Can I take you home, where we can be alone?"
And next we were movin' on and he was with me, yeah,me
Next we were movin' on and he was with me, yeah, me

[Chorus]
E5     E5
I love Rock'n'Roll,
   A5                      B5
so put another dime in the jukebox baby
E5     E5
I love Rock'n'Roll,
   A5                          B5         E5
so come and take your time and dance with me

[Guitar solo/Verse 3]
(The first half of this verse is the solo. Make up your own
solo, I don't transcribe solos. It is played over the first
half of the verse chords. Here is the rest of the verse,
played like the second half of the verses)

  A5                    B5          E5         A5
I said, "Can I take you home, where we can be alone?"
             [no guitar for the rest of the verse]
Next we were movin' on. He was with me, yeah me
and we'll be movin' on and singin' that same old song
yeah, with me singin:

The last chorus is played like this
    E5         E5              A5        B5
E|---------------------------------------------------|
B|---------------------------------------------------|
G|--9--9-------9--9------------2--2------4--4--------|
D|--9--9-------9--9------------2--2------4--4--------|
A|--7--7-------7--7------------0--0------2--2--------|
E|--0--0-------0--0-------3b4------------------------|

    E5         E5              A5        B5
E|-------------------------------------------|
B|-------------------------------------------| (Then repeat
G|--9--9-------9--9------------2--2------4---| straight away)
D|--9--9-------9--9------------2--2------4---|
Av--7--7-------7--7------------0--0------2---|
E|--0--0-------0--0-------3b4--------------0-|
 
[Chorus] x5
E5     E5
I love Rock'n'Roll,
   A5                      B5
so put another dime in the jukebox baby
E5     E5
I love Rock'n'Roll,
   A5                          B5         E5
so come and take your time and dance with me

(The second guitar that comes in when you're playing the chorus
again and again in the end plays this: [simple, just one note])

[Fill 1]
E|-0-0-0-0-0-0-0-0-0-0-0-0-0-0-0-0-|
B|-5-5-5-5-5-5-5-5-5-5-5-5-5-5-5-5-|
G|---------------------------------|
D|---------------------------------|
A|---------------------------------|
E|---------------------------------|


************************************

| r  Release
| b  Bend
| p  Pull-off

************************************
Suggest correction
comments
print report bad tab
5 comments total. Showing first comments.
-1 reply
chan_rocker 10 Jan 16, 2007 08:24 PM

+2 reply
chan_rocker 10 Jan 16, 2007 08:24 PM

bad....all wrong

0 reply
pede0402 10 Sep 13, 2009 04:22 PM

Thanks somebody finally divided the song into chorus and verses. btw the E5 is at the 2 fret.
otherwise nice going!

guest
You may want to rate the tab now too:
select rating
Wanna post a correction for this tab? Suggest correction