Oops, an error
Loading. Please wait.
We have an official I Love Rock N Roll tab made by UG professional guitarists. Check out the tab »
×
31,580 views 933 this week
1 commentread comment
1 2 3 4 5
x 5
add to favorites
×
Save as Personal and add changes to this tab that will be seen only by you. Learn more ›
×
You can save this tab as Personal to edit and correct it or add notes. All changes will be seen only by you. Learn more »
launch autoscroll
font size
0
reset
how to read this tab
guitar tuner
edit
Autoscroll
slow
fast
+/-
esc
set tempo
stop
Both Guitars
e|-------------------------------------------------------|
B|-------------------------------------------------------|
G|---------------2-2--4-4------------------2-2--4--------|
D|--2-2--2-2-----2-2--4-4-----2-2--2-2-----2-2--4---2-2--|
A|--2-2--2-2-----0-0--2-2-----2-2--2-2-----0-0--2---2-2--|
E|--0-0--0-0--3------------3--0-0--0-0--3---------3-0-0--|

(both guitars played together)
Guitar 1
e|-------------------0-----------------------0----------------------|
B|-------15b-12---------------0--15b-12------------------15b-12-------|
G|--------------14-12-------------------14-12-------4-4---------14-12-|
D|--2-2----------------2-2--2-2----------------2-2--4-4---------------|
A|--2-2----------------2-2--2-2----------------2-2--2-2---------------|
E|--0-0----------------0-0--0-0----------------0-0--------------------|
Guitar2
e|--0-0------------------------------------------------------|
B|--0-0------------------------------------------------------|
G|--2-2---------------------------------------4-4------------|
D|--2-2--2p0--------2-2--2-2--2p0--------2-2--4-4--2p0-------|
A|--1-1------2-0----2-2--2-2------2-0----2-2--2-2------2-0---|
E|--0-0----------3--0-0--0-0----------3--0-0---------------3-|

Both Guitars
e|-------------------|
B|-------------------|
G|--2-2--4-4-------2--|
D|--2-2--4-4--2-2--2-| Let last note ring
A|--0-0--2-2--2-2--0-|
E|------------0-0----|

Solo
e|------------7/6-7---------------12-----------------------------------|
B|------------7/6-7----------------------12------------------------12--|
G|------------7/6-7------9-11-11b----11b----11b-9----11----------9-----|
D|------------6/5-6-7/11--------------------------11----9-9-9h11-------|
A|--7-9b-9b-7-7/6-7----------------------------------------------------|
E|---------------------------------------------------------------------|

e|-------------------------------------------------------------|
B|-------------------------------------------------------------|
G|--9-9-9/8--8-8-8/6--6-6-6/4--4-4-4/2--2-2-2/1--1-1-1p0-------|
D|-------------------------------------------------------2p0-2-|
A|-------------------------------------------------------------|
E|-------------------------------------------------------------|

While guitar 1 is soloing, guitar 2 is continuing with the same rhythm.
Just listen to the song and get to know the form. see ya
Suggest correction
Creating personal tab
Creating personal tab
You can edit any tab online and save it as your Personal.

You can edit, replace or remove any tab part or add personal notes – all changes will be seen only by you.

Personal tabs can be accessed anytime from any device, even offline.
Learn more »
comments
print report bad tab
1 comment total.
0 reply
! Black17 ! 10 Oct 31, 2016 09:52 AM

sorry... but it sounds just bad...this version is wrong - its like when you want to play a cm, but you play a dm7

guest
You may want to rate the tab now too:
select rating
Wanna post a correction for this tab? Suggest correction