Oops, an error
Loading. Please wait.

I Love Rock N Roll Tab

version 6
version 6
10,453 views 6 this week
no commentswrite comment
1 2 3 4 5
worth learning
x 3
add to favorites
launch autoscroll
font size
0
reset
how to read this tab
guitar tuner
Tab Pro tools
  • play this tab
  • loop segment
  • change instrument
  • show fretboard
  • metronome
×
Best way to learn
"I Love Rock N Roll"
Autoscroll
slow
fast
+/-
esc
set tempo
stop
Contributor
Difficulty
novice
Both Guitars
e|--0-0--0-0------------------0-0--0-0--------------0-0--|
B|--0-0--0-0------------------0-0--0-0--------------0-0--|
G|--2-2--2-2-----2-2--4-4-----2-2--2-2-----2-2--4---2-2--|
D|--2-2--2-2-----2-2--4-4-----2-2--2-2-----2-2--4---2-2--|
A|--1-1--1-1-----0-0--2-2-----1-1--1-1-----0-0--2---1-1--|
E|--0-0--0-0--3------------3--0-0--0-0--3---------3-0-0--|

(both guitars played together)
Guitar 1
e|--0-0----------------0-0--0-0----------------0-0--------------------|
B|--0-0--15b-12--------0-0--0-0--15b-12--------0-0-------15b-12-------|
G|--2-2---------14-12--2-2--2-2---------14-12--2-2--4-4---------14-12-|
D|--2-2----------------2-2--2-2----------------2-2--4-4---------------|
A|--1-1----------------1-1--1-1----------------1-1--2-2---------------|
E|--0-0----------------0-0--0-0----------------0-0--------------------|
Guitar2
e|--0-0-------------0-0--0-0-------------0-0-----------------|
B|--0-0-------------0-0--0-0-------------0-0-----------------|
G|--2-2-------------2-2--2-2-------------2-2--4-4------------|
D|--2-2--2p0--------2-2--2-2--2p0--------2-2--4-4--2p0-------|
A|--1-1------2-0----1-1--1-1------2-0----1-1--2-2------2-0---|
E|--0-0----------3--0-0--0-0----------3--0-0---------------3-|

Both Guitars
e|------------0-0----|
B|------------0-0----|
G|--2-2--4-4--2-2--2-|
D|--2-2--4-4--2-2--2-| Let last note ring
A|--0-0--2-2--1-1--0-|
E|------------0-0----|

Solo
e|------------7/6-7---------------12-----------------------------------|
B|------------7/6-7----------------------12------------------------12--|
G|------------7/6-7------9-11-11b----11b----11b-9----11----------9-----|
D|------------6/5-6-7/11--------------------------11----9-9-9h11-------|
A|--7-9b-9b-7-7/6-7----------------------------------------------------|
E|---------------------------------------------------------------------|

e|-------------------------------------------------------------|
B|-------------------------------------------------------------|
G|--9-9-9/8--8-8-8/6--6-6-6/4--4-4-4/2--2-2-2/1--1-1-1p0-------|
D|-------------------------------------------------------2p0-2-|
A|-------------------------------------------------------------|
E|-------------------------------------------------------------|

While guitar 1 is soloing, guitar 2 is continuing with the same rhythm.
Just listen to the song and get to know the form. see ya
comments
We did not receive enough feedback on this tab! Please rate:
print report bad tab
1 2 3 4 5
I want to post or [tab]
guest
You may want to rate the tab now too:
select rating
Please do not post tabs as comments. Select "correction" instead!