Oops, an error
Loading. Please wait.
We have an official I Love Rock N Roll tab made by UG professional guitarists. Check out the tab »
×
15,734 views 12 this week
no commentswrite comment
1 2 3 4 5
x 7
add to favorites
launch autoscroll
font size
0
reset
how to read this tab
guitar tuner
×
Best way to learn
"I Love Rock N Roll"
Autoscroll
slow
fast
+/-
esc
set tempo
stop
Difficulty
novice
This is the 100% real version of and best way to play this awesome song!
Trust me.

Key:
B=Large Bend
b=Small Bend
f=Fade Note
h=Hammer On
p=Pull Of
m=Mute
x=Pick Scrape
/=Slide
~=Vibrato

(drums)

e-------------------------------------------------------------|
B-------------------------------------------------------------|
G-CHORUS----------2-2m----4-4m--------------------2-2m----4-2-|
D-2-2m----2-2m----2-2m----4-4m----2-2m----2-2m----2-2m----4-2-|
A-2-2m----2-2m----0-0m----2-2m----2-2m----2-2m----0-0m----2-0-|
E-0-0m----0-0m0h3b------------0h3b0-0m----0-0m0h3b------------|

e-------------------------12p10-----------------|
B-------------------------------12-10/8---------|
G-VERSE-PART-ONE--------------------------------|(repeat)Saw him standin' there by
D-2-2m------------2-2m--------------------------|the record machine
A-2-2m------------2-2m--------------------------|
E-0-0m------------0-0m--------------------------|

e-------------------------12p10------------------------------------|
B-------------------------------12-10/8----------------------------|
G-VERSE-PART-TWO--4-4m------------------2-2m----4-4m------------2--|f
D-2-2m------------4-4m------------------2-2m----4-4m----2-2m----2--|f
A-2-2m------------2-2m------------------0-0m----2-2m----2-2m----0--|f
E-0-0m--------------------------------------------------0-0m-------|
  Knew...         -teen...              Beat...strong...play-...song

(vocals/drums)

e-----------------|
B-BRIDGE----------|
G-4-4-4-4-4-4-4-4-|
D-4-4-4-4-4-4-4-4-|
A-2-2-2-2-2-2-2-2-|
E-----------------|
  me...

CHORUS/VERSE/PART-ONE(no-repeat)

e----------------------------------------12---------------------------|
B------------------7B-rB-------------------------12-------------------|
G-SOLO-------------6B-rB-------9-11-11b-----11b-----11p9------9h11----|
D-2~-----xx-----------------11---------------------------11p9---------|
A-2~-----xx-----------------------------------------------------------|
E-0------xx2b2b0------------------------------------------------------|

e------------------------------------------|
B----------12----/---/---/---/---/---p-----|
G--------9----999888866664444222211110002--|f
D-xx9h11--------------------------------2--|f
A---------------------------------------0--|f
E------------------------------------------|

(vocals/drums)

BRIDGE/CHORUSx2

e-00000000000000000000000000000000000000000000000000000000000000|
B---------------------------------------------------------------|
G---------------------------------------------------------------|
D---------------------------------------------------------------|
A---------------------------------------------------------------|
E---------------------------------------------------------------|
  I...

e-000000000000000000000000000000000000000000000000000000000------|
B----------------------------------------------------------------|
G----------------------------------------------------------4-2---|
D----------------------------------------------------------4-2-2-|
A----------------------------------------------------------2-0-2-|
E--------------------------------------------------------------0-|
                                                               me!
Suggest correction
comments
print report bad tab
guest
You may want to rate the tab now too:
select rating
Wanna post a correction for this tab? Suggest correction