Oops, an error
Loading. Please wait.

I Hate Myself For Loving You Bass Tab

version 1
version 1

Whole song

Interactive

178 views 12 this week
no commentswrite comment
1 2 3 4 5
2 more votes to show rating
add to favorites
launch autoscroll
font size
0
reset
guitar tuner
Autoscroll
slow
fast
+/-
esc
set tempo
stop
Help us to improve Ultimate-Guitar.com Take our survey!
×
Author
Difficulty
novice
Artist: Joan Jett
Song: I Hate Myself For Loving You

INTRO                    
G-------||------------------|-----------------|-----------------|
D-------||*-----------------|-----------------|-----------------|
A-------||*-----------------|-----------------|-5-5-5-2-5-5-5-2-|
E-0-0-0-||--0-0-0-0-0-0-0-0-|-0-0-0-0-0-0-0-0-|-----------------|
                          Play this at END Instead of last Measure
G|------------------||    G|----------------|
D|-----------------*||    D|----------------|
A|-5-2-------------*||    A|-5-2------------|
E|-----0-0-0-0-0-0--||    E|-----0----------|

VERSE
G||-----------------|-----------------|-----------------|-----------------|
D||*----------------|-----------------|-----------------|-----------------|
A||*----------------|-----------------|-5-5-5-5-5-5-5-5-|-5-5-5-5-5-5-5-5-|
E||--0-0-0-0-0-0-0-0|-0-0-0-0-0-3-3-4-|-----------------|-----------------|
                        1.                  2.
G|-----------------|------------------||-----------------|
D|-----------------|---------------2-*||-----------------|
A|-2-2-2-2-2-2-2-2-|-2-2-2-2-2-2-4---*||-2-2-2-2-2-2-2-2-|
E|-----------------|------------------||-----------------|
                                                                                                       
BRIDGE 
G|---------------|-------------|-----------|-----------|-----------------|
D|---------------|-------------|-----------|-----------|-----------------|
A|---------------|-0--0--0-0-0-|-----------|-0--0-0--0-|-2-2-2-2-2-2-2-2-|
E|-3--3--3-3-3-3_|-------------|-3--3-3--3-|-----------|-----------------|

G|-----------------|
D|-----------------|
A|-2-2-2-2-2-2-2---|
E|---------------0-|                                               
                                                 
CHORUS 
G|-----------------|-----------------|-----------------|----------------|
D|-----------------|-----------------|-----------------|----------------|
A|-----------------|-----------------|-0-0-0-0-0-0-0-0-|-0-0-0-0-0-0-0-0|
E|-0-0-0-0-0-0-0-0-|-0-0-0-0-0-0-0-0-|-----------------|----------------|
                                      Mute after 1 beat
G|-----------------|-----------------|-----------------| REST
D|-----------------|-----------------|-----------------| 2.5 Beats
A|-2-2-2-2-2-2-2-2-|-2-2-2-2-2-2-2-2-|-----------------| Then Intro
E|-----------------|-----------------|-0x--------------|

  "THEN PLAY"> INTRO
               VERSE
               BRIDGE
               CHORUS
               INTRO [LEAD]
               BRIDGE
               NO BASS [DRUMS+VOCALS]
               CHORUS
               INTRO 2X

Suggest correction
Give kudos to tab author, rate the tab!
1 2 3 4 5
comments
print report bad tab
guest
You may want to rate the tab now too:
select rating
Wanna post a correction for this tab? Suggest correction