Oops, an error
Loading. Please wait.

Trial At Orleans Tab

13 views 1 this week
no commentswrite comment
1 2 3 4 5
3 more votes to show rating
add to favorites
launch autoscroll
font size
0
reset
how to read this tab
guitar tuner
Autoscroll
slow
fast
+/-
esc
set tempo
stop
Help us to improve Ultimate-Guitar.com Take our survey!
×
Author
Difficulty
novice
Tuning: E A E G B E

This tab is only for the primary guitar.

Each part is labelled with the time it appears in this video: https://www.youtube.com/watch?v=nFfc9O4gkiE


(0:24)
e|---0---------|
B|-4-------0---|
G|-------------|
E|-----0-------| repeat
A|-------------|
E|-4-----5---0-|

(1:34)
e|-------0---------+12-----+7-----+12-----+7-|
B|-0-----0---------+12-----+7-----+12-----+7-|
G|---2-----2---------------------------------|
E|---------------0-------0------0-------0----|
A|-----4-----4-0-------0------0-------0------|
E|-2-----------------------------------------|
 
(1:55)
e|-------------------------5---4---------------------------------0-|
B|---------------------------0-----------------------------------0-|
G|---------------------------------------------------------------4-|
E|-0-0-0-0-0-0-0-0-0-0-0-0-------0-0-0-0-0-0-0-0-0-0-0-0-0-0-0-0-5-|
A|---------------------------------------------------------------0-|
E|---------------------------------------------------------------0-|
                                                        She cranberried...
(2:12)
e|---------|      e|---------|      e|---------|
B|---------|      B|---------|      B|---------|
G|---------|      G|---------|      G|---------|
E|---0-0-0-| x4   E|---0-0-0-| x8   E|---0-0-0-| x16
A|---------|      A|---------|      A|---------|
E|-5-------|      E|-2-------|      E|-0-------|

(2:51)
e|---------|      e|---------|
B|---------|      B|---------|
G|---------|      G|---------|
E|---0-0-0-| x8   E|---0-0-0-| x16
A|---------|      A|---------|
E|-2-------|      E|-5-------|
Seventeen eyes... Are you?!?!...

(3:25) Repeat until end
e|-------------|
B|-------------|
G|-------------|
E|-------0h2p0-|
A|-------------|
E|-4-5-4-------|




***********************************

| h   Hummer-on
| p   Pull-off
| +   Harmonic

***********************************
Suggest correction
Give kudos to tab author, rate the tab!
1 2 3 4 5
comments
print report bad tab
guest
You may want to rate the tab now too:
select rating
Wanna post a correction for this tab? Suggest correction