Oops, an error
Loading. Please wait.
We have Chord Pro version of One Of Us.
It's the closest thing you can get to the original song and it has interactive parts. Check out the tab »
×
92,749 views 228 this week
2 commentsread comments
1 2 3 4 5
x 25
add to favorites
×
Save as Personal and add changes to this tab that will be seen only by you. Learn more ›
×
You can save this tab as Personal to edit and correct it or add notes. All changes will be seen only by you. Learn more »
save as personal
new!
launch autoscroll
font size
0
reset
how to read this tab
guitar tuner
Autoscroll
slow
fast
+/-
esc
set tempo
stop
Capo
2nd fret
-------------------------------------------------------------------------------
                             What if God Was One of Us (Renn's Edit) - Joan Osborne
-------------------------------------------------------------------------------
Tabbed by: Renn187
Email: spongeness2007@yahoo.com
Tuning: Standard
(Capo on 2nd fret)


[Intro]

e|0-2-3------------------3-2-|
B|----0--0--0-1-3----0-3---3-|
G|----0-----0------0-------2-| (x4) (Let it ring on the 4th)
D|----2-----X------0-------0-|
A|----------3------X---------|
E|-----------------3---------|


[Verse 1]

e|------3-------3--------3-------3-|
B|----3-------3--------3-------3---|
G|--0-------0--------0-------2-----|
D|2------------------------0-------| (This is the opening and the verses)
A|--------3------------------------| (x10, last one should ring)
E|-----------------3---------------|


[Chorus]

e|------3---------3---------3-------3--|
B|----3---------3---------3-------3--3-|
G|--0---------0---------0-------2------|
D|----------------------------0--------| (x4)
A|------0h2h3-----3p2------------------|
E|0------------------h3----------------|


[Bridge]

e|0-2-3---------------------3-2---|
B|----0---0---0-1-3---0---3---3-3-|
G|----0-----0-0-----0-0-0-----2---|
D|----2-2-----X-------0-------0---|  (x4)
A|------------3-------X-----------|
E|--------------------3-----------|


(Verse 2)
(Chorus 2, played x8)
(Verse 3, played x2)
(Chorus 3, played x8)
(Bridge, played x4, last one rings)



************************************

| h  Hammer-on
| p  Pull-off

************************************
Suggest correction
comments
print report bad tab
2 comments total.
0 reply
robie1983k 10 Dec 17, 2014 05:13 AM

That is just perfect... Sounds nice without capo as well

guest
Wanna post a correction for this tab? Suggest correction