Oops, an error
Loading. Please wait.

El Rey De Mi Vida Tab

11 views 1 this week
no commentswrite comment
1 2 3 4 5
3 more votes to show rating
add to favorites
launch autoscroll
font size
0
reset
how to read this tab
guitar tuner
Autoscroll
slow
fast
+/-
esc
set tempo
stop
Help us to improve Ultimate-Guitar.com Take our survey!
×
INTRO

----------12------------------------------------------------7--10---
--12-15-----15-12--------------12-15-----------12-------------------
------------------12-----12-14-----------14-14----14-12-------------
--------------------------------------------------------------------
--------------------------------------------------------------------
--------------------------------------------------------------------
SOL            DO               MIm                   DO  RE


ESTROFA

Quiero alabarte(adorarte)sin para todos los días,
          SOL                                DO
que Tu presentcia sea el anhelo de mi vida
         SOL                          DO
yo quiero hacer Tu voluntad
            MIm
Señor yo te quiero agradar
         DO
Y quiero darte siempre el primer lugar
         MIm                       DO
Yo quiero darte siempre el primer lugar
          MIm                       DO   RE


CORO

Si Tu eres el Rey, el Rey de mi vida
             SOL                MIm
el numero uno en mi corazon
          DO
a Ti yo te rindo todo lo que soy
           LAm               RE


Repetir ESTROFA y CORO


----------------------------10---10---------------------------
--10-12-12-10-12--------------------------12-10-----12-10-----
----------------------12-12-----------------------------------
--------------------------------------------------------------
--------------------------------------------------------------
--------------------------------------------------------------
  SOL                            DO


---------------------10--------------------------------10-----
-----10-----------------12--------10----------------------12--
--12----12-12-12---------------12----12-12-12-------12--------
--------------------------------------------------------------
--------------------------------------------------------------
--------------------------------------------------------------
           MIm                          DO             RE


Repetir CORO 2 veces


Si Tu eres el Rey
              SOL   DO
el Rey de mi vida
             SOL    DO    SOL


Parroquia Santuario nuestra Señora del Carmen de la Legua
Comunidad de Catequistas Pescador de Hombres
Callao - Peru 2010
edson_oviedoc@
Suggest correction
Give kudos to tab author, rate the tab!
1 2 3 4 5
comments
print report bad tab
guest
You may want to rate the tab now too:
select rating
Wanna post a correction for this tab? Suggest correction