Oops, an error
Loading. Please wait.

Bandolero Tab

85 views 1 this week
no commentswrite comment
1 2 3 4 5
3 more votes to show rating
add to favorites
launch autoscroll
font size
0
reset
how to read this tab
guitar tuner
×
Best way to learn
"Bandolero"
Autoscroll
slow
fast
+/-
esc
set tempo
stop
*Intro:


-Guitarra:
e. --------15-----------|--------15-----------|--------15----------------|
B. -15b(17)--(17)r15-13-|-15b(17)--(17)r15-13-|-15b(17)--(17)r15-13-/12~-|
G. ---------------------|---------------------|--------------------------|
D. ---------------------|---------------------|--------------------------|
A. ---------------------|---------------------|--------------------------|
E. ---------------------|---------------------|--------------------------|


-Trompetas:

      C                       G
e. -----------------2-3-5-3-----|-8-7---------8-|
B. ---5-5-3-5-3-5-5---------5-3-|-----10-8-10---|
G. -----------------------------|---------------|
D. -5---------------------------|---------------|
A. -----------------------------|---------------|
E. -----------------------------|---------------|


-Flauta:

   Am      Em       B7       Em
e. -5-5-7-5------7------5-------|
B. ---------8--8---8-7----8-7-5-|
G. -----------------------------|
D. -----------------------------|
A. -----------------------------|
E. -----------------------------|


*Verso:


     Em              B7                  Em
Me acusan de ser un hombre que en los caminos (riff)
                B7                 Em
armado con mi guitarra y con mi canción,              -Flauta:
 D      Em    D       Em                              E. -7-10-7----7-|
robo pasión, robo ilusión,                            B. --------10---|
Am          Em            B7       Em                 G. -------------|
para alimentar asi a mi amante corazón,               D. -------------|
Am          Em            B7       Em                 A. -------------|
para alimentar asi a mi amante corazón.               E. -------------|


  Em             B7           Em
Aliado de mis delitos es mi poema (riff)
                   B7             Em
que vaga como el arroyo buscando amor,
 D         Em     D       Em
busca encontrar, busca saciar,
Am           Em        B7          Em
una sed que tenga la capacidad del mar,
Am           Em        B7          Em
una sed que tenga la capacidad del mar.


*Coro:


     C                                   G
Me acusan de haber nacido con alma de bandolero,
     C                                     G
me acusan de haber nacido con alma de soñador,
 Am             Em           B7           Em
cuando quiero quiero y si ya no quiero me voy,
  Am      Em         B7        Em
otorgo y exijo libertad en el amor.


«Trompetas»   C        G

«Flauta»    Am  Em  B7  Em


*Verso:


 Dm               A7           Dm
Existe por mi captura de recompenza (riff)
                       A7          Dm
los besos que por mis culpas debo pagar,
C        Dm    C       Dm
al despertar, al despertar,
Gm              Dm             A7             Dm
en los tiernos brazos que me habrán de encarcelar,
Gm              Dm             A7             Dm
en los tiernos brazos que me habrán de encarcelar.


*Coro:


     C                                   G
Me acusan de haber nacido con alma de bandolero,
     C                                     G
me acusan de haber nacido con alma de soñador,
 Am             Em           B7           Em
cuando quiero quiero y si ya no quiero me voy,
  Am      Em         B7        Em
otorgo y exijo libertad en el amor.


     C                                   G
Me acusan de haber nacido con alma de bandolero,
     C                                     G
me acusan de haber nacido con alma de soñador,
 Am             Em           B7           Em
cuando quiero quiero y si ya no quiero me voy,
  Am      Em         B7        Em
otorgo y exijo libertad en el amor.
Suggest correction
Give kudos to tab author, rate the tab!
1 2 3 4 5
comments
print report bad tab
guest
You may want to rate the tab now too:
select rating
Wanna post a correction for this tab? Suggest correction