Oops, an error
Loading. Please wait.
157 views 3 this week
no commentswrite comment
1 2 3 4 5
3 more votes to show rating
add to favorites
launch autoscroll
font size
0
reset
how to read this tab
guitar tuner
×
Best way to learn
"Celia"
Autoscroll
slow
fast
+/-
esc
set tempo
stop
hola a todos, este es solo un complemento
a la transcripción enviada por Yosel,
que desde mi punto de vista esta muy bien
solo faltaba la TABLATURA, bien,
aqui se las dejo completa

INTRO

    E          C#m
e-5-4----5-4--2-2-4-0--
B-7-5--5-7-5--4-4-5-2--
G------6---------------
D----------------------
A----------------------
E----------------------

e--9--9--9-11-12-12-11--11-11--9----------0--------
B-10-10-10-12-14-14-12--12-12-10-10-----0---0------
G--------------------------------11---1-------1----
D-----------------------------------------------2--
A-----------------------------------0--------------

e-------4-------2-4-5-4---
B-----5---5-----4-5-7-5---
G---6-------6-------------
D-------------6-----------
A-4-----------------------
E-------------------------


E
 Se que te acuerdas, Celia
         C#m
de tu columpio
           A
el que colgabas
           B7
de las estrellas.

E
 Sé que te acuerdas, Celia
           C#m
de tu amor limpio
            A
de días soleados
           B7
de noches bellas.

        E
Y te aplaudo que te olvides
          C#m
de tantas cosas
         A
pues la vida a tí te dió
                 B7
más espinas que rosas.


      E
Te celebro que de las penas
        C#m
vivas ausente
       A
bravo madre, déjame darte
               B7         E
un beso en la frente, ay Celia.

e-5-4----5-4--2-2-4-0--
B-7-5--5-7-5--4-4-5-2--
G------6---------------
D----------------------
A----------------------
E----------------------

e--9--9--9-11-12-12-11--11-11--9----------0--------
B-10-10-10-12-14-14-12--12-12-10-10-----0---0------
G--------------------------------11---1-------1----
D-----------------------------------------------2--
A-----------------------------------0--------------

e-------4-------2-4-5-4---
B-----5---5-----4-5-7-5---
G---6-------6-------------
D-------------6-----------
A-4-----------------------
E-------------------------

E
 Sé que te acuerdas, Celia
           C#m
aún de tus hijos
           A
cuando me miran
          B7
tus ojos fijos.


E
 Sé que te acuerdas, Celia
        C#m
de tu rebozo
             A
en que envolviste
          B7
a este mocoso.


        E
Y mi boquita infantil
         C#m
sobre tu seno
       A
te aseguro nunca probó
                B7       E
un manjar más bueno, ay Celia.

e-5-4----5-4--2-2-4-0--12p11p9-
B-7-5--5-7-5--4-4-5-2----------
G------6-----------------------
D------------------------------
A------------------------------
E------------------------------

e--9--9--9-11-12-12-11--11-11--9----------0--------
B-10-10-10-12-14-14-12--12-12-10-10-----0---0------
G--------------------------------11---1-------1----
D-----------------------------------------------2--
A-----------------------------------0--------------

e-------4-------2-4-5-4---
B-----5---5-----4-5-7-5---
G---6-------6-------------
D-------------6-----------
A-4-----------------------
E-------------------------

E
 Y cuando brillas, Celia
          C#m
tus ojos parcos
             A
se que te acuerdas
        B7
aún de Marcos.

E
 Cuando traía tu hombre
          C#m
de amor velices
           A
sé que recuerdas
        B7
días felices.

       E
Y te admiro que de lo malo
             C#m
siempre te olvides
       A
me imagino por qué a los cielos
            B7        E
por el aún pides, ay Celia.

e-5-4--
B-7-5--

E
 A la vida le agradezco
                C#m
y le haría un reclamo
        A            B7
si olvidaras un día, madre
         E
cuánto te amo.

e-5-4----5-4--2-2-4-0--
B-7-5--5-7-5--4-4-5-2--
G------6---------------
D----------------------
A----------------------
E----------------------

e--9--9--9-11-12-12-11--11-11--9----------0--------
B-10-10-10-12-14-14-12--12-12-10-10-----0---0------
G--------------------------------11---1-------1----
D-----------------------------------------------2--
A-----------------------------------0--------------

e-------4-------2-4-5-4---
B-----5---5-----4-5-7-5---
G---6-------6---------4----
D-------------6-------2----
A-4-------------------2----
E---------------------x----
Suggest correction
Give kudos to tab author, rate the tab!
1 2 3 4 5
comments
print report bad tab
guest
You may want to rate the tab now too:
select rating
Wanna post a correction for this tab? Suggest correction