Oops, an error
Loading. Please wait.

Con La Duda Chords

version 1
version 1

Whole song

30 views 1 this week
no commentswrite comment
1 2 3 4 5
3 more votes to show rating
add to favorites
launch autoscroll
font size
0
reset
transpose
0
reset
display chords
guitar tuner
Autoscroll
slow
fast
+/-
esc
set tempo
stop
Help us to improve Ultimate-Guitar.com Take our survey!
×
Algo excelente, e inovador, Thalía y Joan Sebastian, nuestro gran
compositor, espero que esté bien la rola y se las dejo con el Intro
ay mas o menos nomas que es deslizando cuándo es el cambio de pisada,
escuchen la rola antes para que le hallen la tonada y el ritmo,
la rola viene en el nuevo disco de Thalía ?primera fila?.

INTRO
6---------------------------------------------------G---------
5---------------------------------------------------G---------
4---------------------------------------------------G---------
3---------------------------------------------------G---------
2----3---5---3---2---3---5---3---2---3---5---3---2--G---------
1--2---3---2---0---2---3---2---0---2---3---2---0----G---------

6---------------------------------------------------D---------
5---------------------------------------------------D---------
4---------------------------------------------------D---------
3---------------------------------------------------D---------
2----3---5---3---2---3---5---3---2---3---5---3---2--D---------
1--2---3---2---0---2---3---2---0---2---3---2---0----D---------


D
ME HE QUEDADO CON LA DUDA
       Bm
SI SERIAS O NO
     G
LA PUERTA DEL LABERINTO
        A
DONDE ME HE PERDIDO YO.

     D
ME HE QUEDADO CON LA DUDA
      Bm
SI SERIAS MI AMOR
     G
ESA TIERRA PROMETIDA
     A
EL ANTIDOTO DE MI DOLOR.

   D
ME QUEDE CON OTRA DUDA
        Bm
Y TE PREGUNTARE
      G
SI TU TAMBIEN TE QUEDASTE
       A
COMO ME QUEDE.

       G             D
CON LA DUDA...CON LA DUDA
        A                     D
AUNQUE SANO FUE INJUSTO YO LO SÉ
       G             D
CON LA DUDA...CON LA DUDA
        A                     D
AUNQUE SANO FUE INJUSTO YO LO SÉ.


INTRO
6---------------------------------------------------G---------
5---------------------------------------------------G---------
4---------------------------------------------------G---------
3---------------------------------------------------G---------
2----3---5---3---2---3---5---3---2---3---5---3---2--G---------
1--2---3---2---0---2---3---2---0---2---3---2---0----G---------

6---------------------------------------------------D---------
5---------------------------------------------------D---------
4---------------------------------------------------D---------
3---------------------------------------------------D---------
2----3---5---3---2---3---5---3---2---3---5---3---2--D---------
1--2---3---2---0---2---3---2---0---2---3---2---0----D---------


JS.-SE QUEDO CON LA ILUSIÓN
           Bm
MI BARCA DE PAPEL
     G
DE NAVEGAR POR TUS MARES
        A
Y A TUS AGUAS SERLE FIEL.

         D
JS.-ME QUEDE CON LA ESPERANZA
       Bm
DE QUE MI CANCIÓN
     G
ENTRANDO POR TUS OÍDOS
     A
ABRIERA TU CORAZÓN.

                 G               D
T, JS.- ME HE QUEDADO...ME HE QUEDADO
       A                          D
CON LA DUDA, LA ESPERANZA Y LA ILUSIÓN
         G               D
ME HE QUEDADO...ME HE QUEDADO
       A                          D
CON LA DUDA, LA ESPERANZA Y LA ILUSIÓN.


INTRO
6---------------------------------------------------G---------
5---------------------------------------------------G---------
4---------------------------------------------------G---------
3---------------------------------------------------G---------
2----3---5---3---2---3---5---3---2---3---5---3---2--G---------
1--2---3---2---0---2---3---2---0---2---3---2---0----G---------

6---------------------------------------------------D---------
5---------------------------------------------------D---------
4---------------------------------------------------D---------
3---------------------------------------------------D---------
2----3---5---3---2---3---5---3---2---3---5---3---2--D---------
1--2---3---2---0---2---3---2---0---2---3---2---0----D---------


T.-NOS QUEDAMOS FANTASEANDO
       Bm
CON EL BESO AQUÉL
      G
AQUÉL BESO QUE EN MIS SUEÑOS
        A
RECORRIA TU PIEL.

          D
JS.-ME QUEDE DOMANDO AL POTRO
          Bm
DE AQUELLA PASIÓN
           G
Y HOY LO ESCUCHO RELINCHAR
            A
DE NUEVO EN MI CANCIÓN.

                 G               D
T, JS.- ME HE QUEDADO...ME HE QUEDADO
       A                          D
CON LA DUDA, LA ESPERANZA Y LA ILUSIÓN
         G               D
ME HE QUEDADO...ME HE QUEDADO
       A                          D
CON LA DUDA, LA ESPERANZA Y LA ILUSIÓN.


                 G             D
T, JS.- NOS QUEDAMOS...NOS QUEDAMOS
       A                          D
CON LA DUDA, LA ESPERANZA Y LA ILUSIÓN
        G               D
NOS QUEDAMOS...Y AQUÍ ESTAMOS
       A                          D
CON LA DUDA, LA ESPERANZA Y LA ILUSIÓN.


6---------------------------------------------------D---------
5---------------------------------------------------D---------
4---------------------------------------------------D---------
3---------------------------------------------------D---------
2----3---5---3---2---3---5---3---2---3---5---3---2--D---------
1--2---3---2---0---2---3---2---0---2---3---2---0----D---------
Suggest correction
Give kudos to tab author, rate the tab!
1 2 3 4 5
comments
print report bad tab
guest
You may want to rate the tab now too:
select rating
Wanna post a correction for this tab? Suggest correction