Oops, an error
Loading. Please wait.

Desamor Tab

41 views 1 this week
no commentswrite comment
1 2 3 4 5
3 more votes to show rating
add to favorites
launch autoscroll
font size
0
reset
how to read this tab
guitar tuner
Autoscroll
slow
fast
+/-
esc
set tempo
stop
Help us to improve Ultimate-Guitar.com Take our survey!
×
intro guitarra:
                    D
e:---3p2---0-0h2-------3p2---0---
B:-3-----3-------3----3----3---3-

intro trompeta y clarin:

e:-----0------------------------0------------------
B:-1-3---3-1-0-3-1-0---1-0--1-3---3-1-0-3-1-0----0-
G:-------------------2-------------------------2---

e:-----0-0-----------0-0----------0-------------
B:-1-3-----3-1---1-3-----3-1--1-3---3-1-0---1-0-
G:----------------------------------------2-----
      A
se que esta
                   E7
por llegar la despedida
     D
encontre
   E7             A
desamor en tu mirar.

        A       A7
si me vas a dejar
            D
no me lo digas
          E7
no me gusta
                A
que me vean llorar.

       E7
si amanece
        D   E7         A
y no tengo   tus caricias
      E7                 A   E7
pensare que fuiste un sueño
         A
y desperte.

       A
y al final
     A7           D
termino en pesadilla
           E7
nuestro sueño
           A
por el desamor


interludio trompeta y clarin:

e:-----0------------------------0------------------
B:-1-3---3-1-0-3-1-0---1-0--1-3---3-1-0-3-1-0----0-
G:-------------------2-------------------------2---

e:-----0-0-----------0-0----------0-------------
B:-1-3-----3-1---1-3-----3-1--1-3---3-1-0---1-0-
G:----------------------------------------2-----


     E7
si amanece
      D   E7        A
y no tengo tus caricias
      E7                  D   E7
pensare que fuiste un sueño
          A
y desperte

         A
y al final
    A7           D
termino en pesadilla
           E7
nuestro sueño
           A
por el desamor.

outro:

e:-----0-------------
B:-1-3---3-1-0---1-0-
G:-------------2-----
Suggest correction
Give kudos to tab author, rate the tab!
1 2 3 4 5
comments
print report bad tab
guest
You may want to rate the tab now too:
select rating
Wanna post a correction for this tab? Suggest correction