Oops, an error
Loading. Please wait.

Dos Opciones Tab

version 1
version 1

Whole song

67 views 1 this week
no commentswrite comment
1 2 3 4 5
3 more votes to show rating
add to favorites
launch autoscroll
font size
0
reset
how to read this tab
guitar tuner
×
Best way to learn
"Dos Opciones"
Autoscroll
slow
fast
+/-
esc
set tempo
stop
BUENO CHAVALINES PORQUE USTEDES LO PIDIERON AQUI LA TIENEN......
ARMONIZADA EN RE...

    RE             

1.|-10-10-12-10----10-12-10----10-12-10----10-12-10----|
2.|-10-10-------10----------10----------10----------10-|
3.|----------------------------------------------------|
4.|----------------------------------------------------|
5.|----------------------------------------------------|
6.|----------------------------------------------------|

    FA sost m

1.|-9--10-9----9-10-9----9-10-9----9-10-9--------------|
2.|-10------10--------10--------10--------10-----------|
3.|----------------------------------------------------|
4.|----------------------------------------------------|
5.|----------------------------------------------------|
6.|----------------------------------------------------|

    SI m              LA7      MI m               LA7              RE

1.|-7-5-7-5-7-5---------------|-7-5-7-5-7-5-7-10-10-9-9-7-9-|-10-9-10---|
2.|-8-----------8-7-7---------|-8---------------------------|-----------|
3.|-------------------9-9-8-9-|-----------------------------|-----------|
4.|---------------------------|-----------------------------|-----------|
5.|---------------------------|-----------------------------|-----------|
6.|---------------------------|-----------------------------|-----------|

RE
QUE VOY HACER SIN TI
              FA#m
NO TOMO NI CAFE NI FUMO
     SIm
NO PUEDO IR A BAILAR 
           LA7
NI HACER DEPORTE.
                 RE
QUE VOY HACER SIN TI
                 FA#m
SIN TI A SOLAS ME CONSUMO
     SIm
MURIENDOME DE AMOR
              LA7    SIm
SIN QUE TE IMPORTE.
                             FA#m   SIm
CREO QUE MIS CULPAS YA HE LAVADO
                        FA#m   SIm
CON LO QUE TUVE QUE LLORAR
                       LA7    MIm
AHORA ME QUEDAN DOS OPCIONES

DEJAR DE AMARTE Y OLVIDAR,
      RE
OLVIDAR.


    RE             

1.|-10-10-12-10----10-12-10----10-12-10----10-12-10----|
2.|-10-10-------10----------10----------10----------10-|
3.|----------------------------------------------------|
4.|----------------------------------------------------|
5.|----------------------------------------------------|
6.|----------------------------------------------------|

    FA sost m

1.|-9--10-9----9-10-9----9-10-9----9-10-9--------------|
2.|-10------10--------10--------10--------10-----------|
3.|----------------------------------------------------|
4.|----------------------------------------------------|
5.|----------------------------------------------------|
6.|----------------------------------------------------|

    SI m              LA7      MI m               LA7              RE

1.|-7-5-7-5-7-5---------------|-7-5-7-5-7-5-7-10-10-9-9-7-9-|-10-9-10---|
2.|-8-----------8-7-7---------|-8---------------------------|-----------|
3.|-------------------9-9-8-9-|-----------------------------|-----------|
4.|---------------------------|-----------------------------|-----------|
5.|---------------------------|-----------------------------|-----------|
6.|---------------------------|-----------------------------|-----------|

RE
ES CIERTO TE PERDI
                      FA#m
MAS NO ME SIENTO DERROTADO
SIm                               LA7
ALGO PODRE SACARLE A ESTA EXPERIENCIA
                   RE
TU SABRAS QUE EXIGIRLE 
                FA#m
AL QUE LLEGUE A TU LADO
SIm                       LA7
AMOR  ESA QUE SEA TU GANANCIA.

CREO QUE MIS CULPAS....ETC.


    RE                      FA#m
1.|-7-5-7-5-5*7-5----------------------|
2.|-8-------------8-7--7*8*7-4*5*4-5---|
3.|------------------------------------|
4.|------------------------------------|
5.|------------------------------------|
6.|------------------------------------|


    SIm               LA7 

1.|-7-5-7-5-5*7-5-7--9*10-10--8*9-9--7*9-9---|
2.|-8----------------------------------------|
3.|------------------------------------------|
4.|------------------------------------------|
5.|------------------------------------------|
6.|------------------------------------------|

    RE                        FA#m   

1.|-7-5-7-5-5*7-5----------------------|
2.|-8-------------8-7--7*8*7-4*5*4-5---|
3.|------------------------------------|
4.|------------------------------------|
5.|------------------------------------|
6.|------------------------------------|


    SIm               LA7         RE
    
1.|-7-5-7-5-5*7-5-7--10-9-|-10-9-9*10--|
2.|-8---------------------|------------|
3.|-----------------------|------------|
4.|-----------------------|------------|
5.|-----------------------|------------|
6.|-----------------------|------------|


  CRE QUE MIS CULPAS YA HE LAVADO...ETC.


    RE             

1.|--10-12-10----10-12-10----10-12-10----10-12-10--------10--|
2.|--10-------10----------10----------10----------10-----10--|
3.|----------------------------------------------------------|
4.|----------------------------------------------------------|
5.|----------------------------------------------------------|
6.|----------------------------------------------------------|

SI ENCUENTRAN ALGUN EROOORRRR ESCRIBANME.....
SALUDOS A TODA LA RAZA GUITARRISTA.......
Y AMI NOVIA PAULITA...
Suggest correction
Give kudos to tab author, rate the tab!
1 2 3 4 5
comments
print report bad tab
guest
You may want to rate the tab now too:
select rating
Wanna post a correction for this tab? Suggest correction