Oops, an error
Loading. Please wait.

Dos Opciones Tab

version 2
version 2

Whole song

35 views 1 this week
no commentswrite comment
1 2 3 4 5
3 more votes to show rating
add to favorites
launch autoscroll
font size
0
reset
how to read this tab
guitar tuner
×
Best way to learn
"Dos Opciones"
Autoscroll
slow
fast
+/-
esc
set tempo
stop
*Intro:


1. -/121212-14-12----12-14-12----12-14-12----12-14-12----|-11-12-11----11-12-11----11-12-11----11-12-11----|
2. ---------------12----------12----------12----------12-|----------12----------12----------12----------12-|
3. ------------------------------------------------------|-------------------------------------------------|
4. ------------------------------------------------------|-------------------------------------------------|
5. ------------------------------------------------------|-------------------------------------------------|
6. ------------------------------------------------------|-------------------------------------------------|

1. -----------------------------------|-------------------12-12p11-11--9-11--12-11-12-|
2. -9-10--9-10-9-10-9-9-7-7\5-5-4-4/5-|-12-14-12-14-12-14-12-12----12-10-12-----------|
3. -------9-11-9-11-9-9-8-8\6-6-4-4/6-|-13-14-13-14-13-14-----------------------------|
4. -----------------------------------|-----------------------------------------------|
5. -----------------------------------|-----------------------------------------------|
6. -----------------------------------|-----------------------------------------------|


*Verso:


                     E
Qué voy a hacer sin tí?
            G#m
no tomo ni café, ni fumo,
1. ---------------------------------------|
2. ---------------------------------------|
3. -------------------------------6-8-8/9-|
4. -----------------------6-7-7/9---------|
5. ---------------------------------------|
6. ---------------------------------------|
    C#m                            B 
no puedo ir a bailar, ni hacer deporte,
1. --------------------------------------------------------|
2. ------------------------------------0-4-5-5/7-5-5p4-----|
3. ----------------------------------------------------4-2-|
4. --------------------------------------------------------|
5. --------------------------------------------------------|
6. --------------------------------------------------------|      
                     E
qué voy a hacer sin tí?
              G#m
sin tí a solas me consumo,
1. ------------------------------------|
2. -------------------------4h5p4----2-|
3. -----------------------4------4-4---|
4. ------------------------------------|
5. ------------------------------------|
6. ------------------------------------|
   C#m                             B
muriendome de amor sin que te importe.
1. ------------------------------------------2-2h4-2-|
2. ------------------------------------2-4-5---------|
3. --------------------------------------------------|
4. --------------------------------------------------|
5. --------------------------------------------------|
6. --------------------------------------------------|


*Coro:


C#m                         G#m
Creo que mis culpas ya he lavado,
1. -----------------------------------------|
2. -----------------------------7-7-5-4-4/5-|
3. -----------------------------8-8-6-4-4/6-|
4. -----------------------------------------|
5. -----------------------------------------|
6. -----------------------------------------|
C#m                    G#m
con lo que tuve que llorar,
1. -------------------------------------|
2. -------------------------4-5-4-------|
3. -----------------------4-------4-2-4-|
4. -------------------------------------|
5. -------------------------------------|
6. -------------------------------------|
 A                        B
ahora me quedan dos opciones,
1. ---------------------------------2------|
2. -------------------------2-2--4-4---4-2-|
3. ------------------------2-2--4-----4-2--|
4. ----------------------------------------|
5. ----------------------------------------|
6. ----------------------------------------|
 A                    B                         E
dejar de amarte y olvidar,                  olvidar.
1. -------------------------------4-5-5/7-7---7p4-4-|
2. -------------------------4-5-7-------------------|
3. ---------------------4-6-------------------------|
4. -------------------------------------------------|
5. -------------------------------------------------|
6. -------------------------------------------------|


*Interlude:


1. -/121212-14-12----12-14-12----12-14-12----12-14-12----|-11-12-11----11-12-11----11-12-11----11-12-11----|
2. ---------------12----------12----------12----------12-|----------12----------12----------12----------12-|
3. ------------------------------------------------------|-------------------------------------------------|
4. ------------------------------------------------------|-------------------------------------------------|
5. ------------------------------------------------------|-------------------------------------------------|
6. ------------------------------------------------------|-------------------------------------------------|

1. -----------------------------------|-------------------12-12p11-11--9-11--12-11-12-|
2. -9-10--9-10-9-10-9-9-7-7\5-5-4-4/5-|-12-14-12-14-12-14-12-12----12-10-12-----------|
3. -------9-11-9-11-9-9-8-8\6-6-4-4/6-|-13-14-13-14-13-14-----------------------------|
4. -----------------------------------|-----------------------------------------------|
5. -----------------------------------|-----------------------------------------------|
6. -----------------------------------|-----------------------------------------------|

 
*Verso:


                 E
Es cierto, te perdí,
                  G#m
más no me siento derrotado,
C#m                            B 
algo podre sacarle a esta experiencia,
1. ------------------------------------7h8p7-|
2. ------------------------------------------|
3. ------------------------------------------|
4. ------------------------------------------|
5. ------------------------------------------|
6. ------------------------------------------|
                    E                     G#m
tú sabras que exigirle al que llegue a tu lado,
1. ------------------------------------------------------------|
2. --------------------------------------------4-5-5/7-5p4-----|
3. --------------------------------------------------------4-2-|
4. ------------------------------------------------------------|
5. ------------------------------------------------------------|
6. ------------------------------------------------------------|
 C#m                       B 
amor, esa que sea tu ganancia.
1. ------------------------------------------------|
2. ----------------------------0-4-5-5/7-4-5/7-4-5-|
3. ------------------------------------------------|
4. ------------------------------------------------|
5. ------------------------------------------------|
6. ------------------------------------------------|


*Coro: 


C#m                         G#m
Creo que mis culpas ya he lavado,
C#m                    G#m
con lo que tuve que llorar,
 A                        B
ahora me quedan dos opciones,
 A                    B                       E
dejar de amarte y olvidar,                 olvidar.
1. -------------------------------4-5-5/7-7-|
2. -------------------------4-5-7-----------|
3. ---------------------4-6-----------------|
4. -----------------------------------------|
5. -----------------------------------------|
6. -----------------------------------------|


*Solo:


1. -----------------------|----------------------------------|
2. ---9-7-7h9-7-5-9-7-4-4-|---9-7-7h9-7-9-10-10/12-10-10-9-7-|
3. -8-9-8-8h9-8-6-9-8-4-4-|-8-9-8-8h9-8-9-11-11/13-11-11-9-8-|
4. -9---------------------|-9--------------------------------|
5. -----------------------|----------------------------------|
6. -----------------------|----------------------------------|

-Violín:
1. ----------------------------------|-------------------12-14-|----------------------12-|
2. -12-14-12-14-12-10-9-9------------|-12-14-12-14-12-14-------|---------99-1010-1111----|
3. -----------------------11-11-9-11-|-------------------------|-99-1111-----------------|
4. ----------------------------------|-------------------------|-------------------------|
5. ----------------------------------|-------------------------|-------------------------|
6. ----------------------------------|-------------------------|-------------------------|
-Guitarra:                                                                               |
1. ----------------------------------|-------------------------|-------------11-14-11-12-|
2. ----------------------------------|-------------------------|-------------------------|
3. ----------------------------------|-------------------------|-------------------------|
4. ----------------------------------|-------------------------|-------------------------|
5. ----------------------------------|-------------------------|-------------------------|
6. ----------------------------------|-------------------------|-------------------------|
 

*Coro:


C#m                         G#m
Creo que mis culpas ya he lavado,
1. --------------------------------------------------|
2. ------------------------------0-4-5/7-5-4---4-4/5-|
3. ------------------------------------------4-------|
4. --------------------------------------------------|
5. --------------------------------------------------|
6. --------------------------------------------------|
C#m                    G#m
con lo que tuve que llorar,
 A                        B
ahora me quedan dos opciones,
 A                    B                       E
dejar de amarte y olvidar,                 olvidar.
1. -------------------------------4-5-5/7-7-|
2. -------------------------4-5-7-----------|
3. ---------------------4-6-----------------|
4. -----------------------------------------|
5. -----------------------------------------|
6. -----------------------------------------|


*Outro:


1. -/121212-14-12----12-14-12----12-14-12----12-14-12----------12-|
2. ---------------12----------12----------12----------12------12--|
3. ----------------------------------------------------------13---|
4. ---------------------------------------------------------14----|
5. --------------------------------------------------------14-----|
6. -------------------------------------------------------12------|
Suggest correction
Give kudos to tab author, rate the tab!
1 2 3 4 5
comments
print report bad tab
guest
You may want to rate the tab now too:
select rating
Wanna post a correction for this tab? Suggest correction