Oops, an error
Loading. Please wait.

Dos Opciones Tab

version 3
version 3

Whole song

35 views 1 this week
no commentswrite comment
1 2 3 4 5
3 more votes to show rating
add to favorites
launch autoscroll
font size
0
reset
how to read this tab
guitar tuner
×
Best way to learn
"Dos Opciones"
Autoscroll
slow
fast
+/-
esc
set tempo
stop
Bueno les mando esta version en el tono original,(mi mayor)
solo hay que escucharla bien
INTRO

e-----12---12-14-12--12-14-12--12-14-12--11-12-11----
B---12---12--------12--------12--------12------------
G-13-------------------------------------------------
D----------------------------------------------------
A----------------------------------------------------
E----------------------------------------------------

e---11-12-11---11-12-11--11---9--7--9--7--9--7-5-4-4-2-0-2-
B-12---------12----------12--10--9-10--9-10--9-7-5-5-4-2-4-
G----------------------------------------------------------
D----------------------------------------------------------
A----------------------------------------------------------
E----------------------------------------------------------

e--9--7--9--7--9-11-12-12-11--9-7--9--12h11p12--
B-10--9-10--9-10-12-14-14-12-10-9-10------------
G-----------------------------------------------
D-----------------------------------------------
A-----------------------------------------------
E-----------------------------------------------

E
QUE VOY A HACER SIN TI
                    G#m
NO TOMO NI CAFÉ NI FUMO
A                              B7
NO PUEDO IR A BAILAR NI HACER DEPORTE.

E
QUE VOY A HACER SIN TI
                     G#m
SIN TI A SOLAS ME CONSUMO
A                             B7
MURIENDOME DE AMOR SIN QUE TE IMPORTE.

CORO

C#m                         B7
CREO QUE MIS CULPAS YA HE LAVADO
C#m                      B7
CON LO QUE TUVE QUE LLORAR
A                   B7
AHORA ME QUEDAN DOS OPCIONES
A                     B7          E
DEJAR DE AMARTE Y OLVIDAR...OLVIDAAAAAAAAR.

e-----12---12-14-12--12-14-12--12-14-12--11-12-11----
B---12---12--------12--------12--------12------------
G-13-------------------------------------------------
D----------------------------------------------------
A----------------------------------------------------
E----------------------------------------------------

e---11-12-11---11-12-11--11---9--7--9--7--9--7-5-4-4-2-0-2-
B-12---------12----------12--10--9-10--9-10--9-7-5-5-4-2-4-
G----------------------------------------------------------
D----------------------------------------------------------
A----------------------------------------------------------
E----------------------------------------------------------

e--9--7--9--7--9-11-12-12-11--9-7--9--12h11p12--
B-10--9-10--9-10-12-14-14-12-10-9-10------------
G-----------------------------------------------
D-----------------------------------------------
A-----------------------------------------------
E-----------------------------------------------

E
ES CIERTO QUE PERDÍ
                      G#m
MAS NO ME SIENTO DERROTADO
A                            B7
ALGO PODRÉ SACARLE A ÉSTA EXPERIENCIA.

E
TU SABRÁS QUE EXIGIRLE
            G#m
AL QUE LLEGUE A TU LADO
A                     B7
AMOR, ESA QUE SEA TU GANANCIA.

CORO

e-----12---12-14-12--12-14-12--12-14-12----12----
B---12---12--------12--------12-----------12-----
G-13-------------------------------------13------
D---------------------------------------14-------
A------------------------------------------------
E------------------------------------------------
Suggest correction
Give kudos to tab author, rate the tab!
1 2 3 4 5
comments
print report bad tab
guest
You may want to rate the tab now too:
select rating
Wanna post a correction for this tab? Suggest correction