Oops, an error
Loading. Please wait.

Dos Opciones Tab

version 4
version 4

Whole song

16 views 1 this week
no commentswrite comment
1 2 3 4 5
3 more votes to show rating
add to favorites
launch autoscroll
font size
0
reset
how to read this tab
guitar tuner
×
Best way to learn
"Dos Opciones"
Autoscroll
slow
fast
+/-
esc
set tempo
stop
que tal a todos, aqui está ésta modificacion total de la cancion,
en el tono original y sin ningun error, chequenla..
muy buena letra.. para llorar..
cualquier comentario.. mi correo es palatooc_25@

       1º Parte

1.|-12-12-14-12--12-14-12----12-14-12-----9-11-9-------|
2.|-12----------12----------12----------12-------------|
3.|----------------------------------------------------|
4.|----------------------------------------------------|
5.|----------------------------------------------------|
6.|----------------------------------------------------|


1.|---9-11-9----9-11-9-------9----7--9----7--9-7-5-4-4-|
2.|-12--------12--------12--10----9-10----9-10-9-7-5-5-|
3.|----------------------------------------------------|
4.|----------------------------------------------------|
5.|----------------------------------------------------|
6.|----------------------------------------------------|


1.|-2--2--0--2----9----7--9--7--9----7--9---12-12--11-11--9-11-12-11-12-|
2.|-4--4--2--4---10----9-10--9-10----9-10---14-14--12-12-10-12-12-------|
3.|---------------------------------------------------------------------|
4.|---------------------------------------------------------------------|
5.|---------------------------------------------------------------------|
6.|---------------------------------------------------------------------|

MI
QUE VOY HACER SIN TI
              SOL#m
NO TOMO NI CAFE NI FUMO
     LA
NO PUEDO IR A BAILAR
           SI7
NI HACER DEPORTE.
                 MI
QUE VOY HACER SIN TI
                SOL#m
SIN TI A SOLAS ME CONSUMO
     LA
MURIENDOME DE AMOR
              SI  DO#m
SIN QUE TE IMPORTE.
                            SOL#m  DO#m
CREO QUE MIS CULPAS YA HE LAVADO
                       SOL#m   LA
CON LO QUE TUVE QUE LLORAR
                       SI7    LA
AHORA ME QUEDAN DOS OPCIONES
                       SI7
DEJAR DE AMARTE Y OLVIDAR,
      MI
OLVIDAR.


De nuevo (1º Parte)
...................
........................
...........................


MI
ES CIERTO TE PERDI
                     SOL#m
MAS NO ME SIENTO DERROTADO
LA                               SI7
ALGO PODRE SACARLE A ESTA EXPERIENCIA
                   MI
TU SABRAS QUE EXIGIRLE
               SOL#m
AL QUE LLEGUE A TU LADO
LA                        SI     DO#m
AMOR  ESA QUE SEA TU GANANCIA.

CREO QUE MIS CULPAS....ETC.


1.|-------2-4--2-4--2-0--4-2-----------|
2.|---5---4-5--4-5--4-2--5-4--4-4------|
3.|---6-----------------------4-4------|
4.|-6----------------------------------|
5.|------------------------------------|
6.|------------------------------------|


1.|-------2-4--2-4--2-4--5-7--5-7---5-5-4-2--|
2.|---5---4-5--4-5--4-5--7-9--7-9---7-7-5-4--|
3.|---6--------------------------------------|
4.|-6----------------------------------------|
5.|------------------------------------------|
6.|------------------------------------------|


1.|----9----7--9----7--9-7-5-4-4--2-2-0----------------|
2.|---10----9-10----9-10-9-7-5-5--4-4-2----------------|
3.|----------------------------------------------------|
4.|----------------------------------------------------|
5.|----------------------------------------------------|
6.|----------------------------------------------------|


1.|---9----7--9--7--9----7--9---12-14--12-12--11-12----|
2.|--10----9-10--9-10----9-10---14-16--14-14--12-12----|
3.|----------------------------------------------------|
4.|----------------------------------------------------|
5.|----------------------------------------------------|
6.|----------------------------------------------------|


  CRE QUE MIS CULPAS YA HE LAVADO...ETC.


1.|--12-12-14-12---12-14-12---12-14-12--------12-------|
2.|--12-----------12---------12---------12----12-------|
3.|-------------------------------------------13-------|
4.|----------------------------------------------------|
5.|----------------------------------------------------|
6.|----------------------------------------------------|
Suggest correction
Give kudos to tab author, rate the tab!
1 2 3 4 5
comments
print report bad tab
guest
You may want to rate the tab now too:
select rating
Wanna post a correction for this tab? Suggest correction