Oops, an error
Loading. Please wait.

El Camino Del Amor Tab

97 views 1 this week
no commentswrite comment
1 2 3 4 5
3 more votes to show rating
add to favorites
launch autoscroll
font size
0
reset
how to read this tab
guitar tuner
Autoscroll
slow
fast
+/-
esc
set tempo
stop
Help us to improve Ultimate-Guitar.com Take our survey!
×
-Corrección mía y de la otra transcripción. Esta 100% correcta, acordes
y pisadas. Pongan esta en lugar de mi pasada transcripción. Gracias.


*Intro:

          E            A            B           B7            E
1. -4-4-4-2--------2-4-5-5--2-2-4-5-7-7--7-5-5-4------------------------|
2. ---------5-5--5-------------------------------7-7--7-5-4-7-5-5---2-4-|
3. ---------------------------------------------------------------4-----|
4. ---------------------------------------------------------------------|
5. ---------------------------------------------------------------------|
6. ---------------------------------------------------------------------|

*Verso:

E
El camino del amor (riff 1)
 A                    E               riff 1:        riff 2:
tiene espinas, tiene flor (riff 2) 1. --------------|--------------------|
 A                 E               2. --------------|--------------------|
tiene alegría y dolor,(riff 3)     3. -----------4~-|--------------------|
  A                  B             4. ---------2----|-2-1-4-2-2-2-0------|
antes de empezar a andar           5. -2-2---2------|---------------4-2-0|
  E                                6. -----4--------|--------------------|
debes en cuenta tomar
A               B            E                      riff 3:
lo que en ese camino has de encontrar.           1. ---------------|
                                                 2. ---------------|
                                                 3. -------1-4/6-4-|
1. -4-4-4-2----4-4-2----4-4-2---|                4. -----2---------|
2. ---------5--------5--------5-|                5. -2-2-----------|
3. -----------------------------|                6. ---------------|
4. -----------------------------|
5. -----------------------------|
6. -----------------------------|

E
El camino del amor
 A                    E
tiene espinas, tiene flor
 A                 E
tiene alegría y dolor
 A                B
lagrimas al por mayor
E
y no siempre de dolor
  A                B             E
cuando lloras de alegría es lo mejor.


*Coro:

-Riff de coro:

    A                                E
1. --------------------------------|---------------------------------|
2. --------------------------------|---------------------------------|
3. --------------------------------|---------------------------------|
4. -------------4--------------4---|---------------------------------|
5. -----4-4-7-7---7-----4-4-7----7-|---------2-2-4-2---------2-2-4-2-|
6. -5-5-------------5-5------------|-0-0-4-4---------0-0-4-4---------|

    B
1. ---------------------------------|
2. ---------------------------------|
3. ---------------------------------|
4. ---------------------------------|
5. -----6-6-9-9-7-6-----6-6-9-9-7-6-|
6. -7-7-------------7-7-------------|

    E
1. -------------------------------------------------|
2. -------------------------------------------------|
3. -------------------------------------------------|
4. -------------------11----------------------11----|
5. -------11-11-14-14----14-------11-11-14-14----14-|
6. -12-12-------------------12-12-------------------|


 A                    E
Tiene espina, tiene flor,
B               E
el camino del amor,
 A                 E
tiene alegría y dolor,
B               E
el camino del amor.


          E            A            B           B7            E
1. -4-4-4-2--------2-4-5-5--2-2-4-5-7-7--7-5-5-4------------------------|
2. ---------5-5--5-------------------------------7-7--7-5-4-7-5-5---2-4-|
3. ---------------------------------------------------------------4-----|
4. ---------------------------------------------------------------------|
5. ---------------------------------------------------------------------|
6. ---------------------------------------------------------------------|

*Verso:

E
El camino del amor
 A                    E
tiene espinas, tiene flor
 A                 E
tiene alegría y dolor
 A                   B
se que un día me besaras
E
otro día te enojaras
 A                   B         E
pero se que aquel camino volverás.

1. -4-4-4-2----4-4-2----4-4-2---|
2. ---------5--------5--------5-|
3. -----------------------------|
4. -----------------------------|
5. -----------------------------|
6. -----------------------------|

E
El camino del amor
 A                    E
tiene espinas, tiene flor
 A                 E
tiene alegrías y dolor
 A                B
lagrimas al por mayor
E
y no siempre de dolor
  A                B             E
cuando lloras de alegría es lo mejor.


*Coro:

A                    E
Tiene espina, tiene flor,
B               E
el camino del amor,
 A                 E
tiene alegría y dolor,
B               E
el camino del amor.


A                    E
Tiene espina, tiene flor,
B               E
el camino del amor,
 A                 E
tiene alegría y dolor,
B               E
el camino del amor.
                 (hasta el Fade Out)
     |//
 |/ |O O| |/
  |  | ( |  |       ___  ___  ___  ___
  |   -U-   |      /__  /_   /__/ /_
  |____|____|     /__/ /___ /   /___
   |_     _|
     |COL|
     |72!|         Colonia 72, Los Mochis, Sinaloa, Mex.
     |___|
     |   |          *Saludos a Chaman, Beto, Misa, Carlos,
     | | |           Pier, Ocho, Rodo, Ricardo, Sergio y Ariel.
     | | |
    _|_|_|_
   (___|___)
Suggest correction
Give kudos to tab author, rate the tab!
1 2 3 4 5
comments
print report bad tab
guest
You may want to rate the tab now too:
select rating
Wanna post a correction for this tab? Suggest correction