Oops, an error
Loading. Please wait.

El Canario Tab

50 views 1 this week
no commentswrite comment
1 2 3 4 5
3 more votes to show rating
add to favorites
launch autoscroll
font size
0
reset
how to read this tab
guitar tuner
×
Best way to learn
"El Canario"
Autoscroll
slow
fast
+/-
esc
set tempo
stop
esta cancion JOAN LA CANTA  en mi mayor con capo en el segundo traste si no
le ponen capo esta en re mayor y este es el requinto.
enviado por jose.g


1.----------------------------2---------------------------------
2.--1-h-3-2-0-3-3-3-2-0-0-----3------------2-2-2-2-0-----0------
3.--2-h-4-2-0-4-4-4-2-0-0--2--2------------2-2-2-2-0--2--0--2---
4.-------------------------3-------------2------------4-----4---
5.-------------------------------0---4--------------------------
6.--------------------------------------------------------------


1.------------------------------------2-------------------------
2.-----------2-2-2-2-0----------------3-------------------------
3.-----------2-2-2-2-0---2-2--2-2-2-2-2-------------------------
4.--------2--------------4-0--4-4-2-4-0-------------------------
5.-0--4---------------------------------------------------------
6.--------------------------------------------------------------


                     D
Si quieres que te cante
                A
me volveré canario
                  G
para cantarte siempre
                   D
para cantarte a diario.

                   D
Si pides que me calle
                    A
será incierta la espera
                   G
pero he de complacerte
                    D
cuándo de amor me muera
D            A    G                   D
ay, ay, ay, ay   cuándo de amor me muera.

1.----------------------------------------------------
2.------------2-2-2-2-0-----0-------------------------
3.------------2-2-2-2-0--2--0--2----------------------
4.--------2--------------4-----4----------------------
5.--0--4----------------------------------------------
6.----------------------------------------------------


1.------------------------------------2---------------
2.-----------2-2-2-2-0----------------3---------------
3.-----------2-2-2-2-0---2-2--2-2-2-2-2---------------
4.--------2--------------4-0--4-4-2-4-0---------------
5.-0--4-----------------------------------------------
6.----------------------------------------------------


                 D
Si me pides la luna
              A
mira te la regalo
                G
dicen que soy iluso
                D
y que tiene de malo.

               D
Es ilusión la vida
                  A
una ilusión muy fuerte
                  G
una ilusión bien sana
                 D
es querer complacerte
D            A  G                  D
ay, ay, ay, ay    es querer complacerte.
1.----------------------------2---------------------------------
2.--1-h-3-2-0-3-3-3-2-0-0-----3------------2-2-2-2-0-----0------
3.--2-h-4-2-0-4-4-4-2-0-0--2--2------------2-2-2-2-0--2--0--2---
4.-------------------------3-------------2------------4-----4---
5.-------------------------------0---4--------------------------
6.--------------------------------------------------------------


1.------------------------------------2-------------------------
2.-----------2-2-2-2-0----------------3-------------------------
3.-----------2-2-2-2-0---2-2--2-2-2-2-2-------------------------
4.--------2--------------4-0--4-4-2-4-0-------------------------
5.-0--4---------------------------------------------------------
6.--------------------------------------------------------------

               D
Y me volví canario
                A
espero que te guste
                   G
pero amarra a ese gato
                 D
para que no me asuste.

                D
Aquí tienes mi canto
                A
sólo dos cosas pido
                      G
dame un rincón en tu alma
                    D
para construir mi nido
D            A  G                   D
ay, ay, ay, ay    nunca me des tu olvido.
.-------------------------------------------------------
2.------------2-2-2-2-0-----0---------------------------
3.------------2-2-2-2-0--2--0--2------------------------
4.--------2--------------4-----4------------------------
5.--0--4------------------------------------------------
6.------------------------------------------------------


1.--------------------------2----------------------------
2.-----------2-2-2-2-0------3----------------------------
3.-----------2-2-2-2-0---2--2----------------------------
4.--------2--------------4--0----------------------------
5.-0--4--------------------------------------------------
6.-------------------------------------------------------
Suggest correction
Give kudos to tab author, rate the tab!
1 2 3 4 5
comments
print report bad tab
guest
You may want to rate the tab now too:
select rating
Wanna post a correction for this tab? Suggest correction