Oops, an error
Loading. Please wait.

El Muchacho Triste Tab

38 views 1 this week
no commentswrite comment
1 2 3 4 5
3 more votes to show rating
add to favorites
launch autoscroll
font size
0
reset
how to read this tab
guitar tuner
Autoscroll
slow
fast
+/-
esc
set tempo
stop
Help us to improve Ultimate-Guitar.com Take our survey!
×
¡¡Para todos los muchachos tristes como yo!! XD XD XD


(Intro)

                     F              C             G7           C
e. ----------------7-8--8/10-8-------------------------------------|
B. -----------8-10-------------8/10-8------------------------------|
G. ----7-9-10-------------------------7h9-7-----------7------------|
D. -10--------------------------------------10----7/9--------------|
A. ----------------------------------------------------------------|
E. ----------------------------------------------------------------|

(Verso)

                   C                              G7
Cuando estabas conmigo me faltaba cara para mi sonrisa
                                                                  C
me gustaba lucirte en la calle, en el parque, en el baile, en la misa.

                C                                      G7
Tocaban los mariachis al verme llegando, el muchacho alegre
                                                    C   C7
ahora de ver mi pena los perros vecinos aullan al verme.


(Coro)

                   F
Si vieras cuantas cosas cambiaste en mi vida
    G7      C
cuando te fuiste
                 G7
para no hacerla larga me apodan ahora
              C    C7
el muchacho triste.

                   F
Si vieras cuantas cosas cambiaste en mi vida
    G7      C
cuando te fuiste
                 G7
para no hacerla larga me apodan ahora
              C
el muchacho triste.

                       F              C                 G7           C
e. ----------------7-7/8-8h10-8--8----8---------------------------------|
B. -----------8-10---------------8h10-8-8-10p8--------------------------|
G. ----7-9-10----------------------------------9p7-----------7----------|
D. -10---------------------------------------------10-------------------|
A. -----------------------------------------------------9/10------------|
E. ---------------------------------------------------------------------|


(Verso)

                   C                                   G7
Cuando estabas conmigo quería aumentarle dos horas al día
                                                           C
que bueno que no lo hice si no veintiséis horas te extrañaría.

                   C                             G7
Cuando estabas conmigo mi caballo moro alegre bailaba
                                                         C  C7
ahora de ver mi pena, de verme sufrir ni el maicito se acaba.


(Coro)

                   F
Si vieras cuantas cosas cambiaste en mi vida
    G7      C
cuando te fuiste
                 G7
para no hacerla larga me apodan ahora
              C    C7
el muchacho triste.

                   F
Si vieras cuantas cosas cambiaste en mi vida
    G7      C
cuando te fuiste
                 G7
para no hacerla larga me apodan ahora
              C
el muchacho triste.


*Trompetas:

                F                       C
e. -------------------------------------------------|
B. -------------------------------------8---------8-|
G. -5-5-7-5-7-5---5-7-5-7-5---5-7-5-7-5---10-9-10---|
D. -------------7-----------7-----------------------|
A. -------------------------------------------------|
E. -------------------------------------------------| <----------_
                                                                  |
*Guitarra:                                                   se tocan
E. ------------------------------------------------------|    juntos
B. ------------------------------------------------------|       _|
G. ------------------------------------------------------|<------
D. -------------7-9-9/10-10h12-10------------------------|
A. ------7-8-10-------------------10h12-10-12p10---------|
E. -8-10-----------------------------------------12p10-8-|

*Acordeón:

                G7                  C
e. -----------5-----5---5---------------------------|
B. -5-5-6-5-6---8-8---8---8-8-6-5---------8-8-8-8-8-|
G. -------------------------------7-5---5-----------|
D. -------------------------------------------------|
A. -------------------------------------------------|
E. -------------------------------------------------|


(Coro)

                   F
Si vieras cuantas cosas cambiaste en mi vida
    G7      C
cuando te fuiste
                 G7
para no hacerla larga me apodan ahora
              C    C7
el muchacho triste.

                   F
Si vieras cuantas cosas cambiaste en mi vida
    G7      C
cuando te fuiste
                 G7
para no hacerla larga me apodan ahora
              C
el muchacho triste.


                F                          C                    G7     C
e. -----------------------------------------------------------------------|
B. -----------------------------------------------------------------------|
G. ----------------10-----------------------------------------------------|
D. ---------7-9-10-10h12-10-10-12p10--------------------------------------|
A. --7-8-10--------------------------10h12-10-10-12p10--------------------|
E. ----------------------------------------------------12p10-8------------|


Me encanta esta rola. Está medio cómica.
*Dudas o sugerencias a mi e-mail: gerewalsh@
Suggest correction
Give kudos to tab author, rate the tab!
1 2 3 4 5
comments
print report bad tab
guest
You may want to rate the tab now too:
select rating
Wanna post a correction for this tab? Suggest correction