Oops, an error
Loading. Please wait.

El Perdedor Tab

136 views 1 this week
no commentswrite comment
1 2 3 4 5
3 more votes to show rating
add to favorites
launch autoscroll
font size
0
reset
how to read this tab
guitar tuner
Autoscroll
slow
fast
+/-
esc
set tempo
stop
pzz aki estamx de new
es mi segunda transcripcion
jajaja

     rekinto.....
  G                                        Em
E-10-10-10-10-10-8- 8- 7---7-8- 7-8- 7-5-5-3-3-3
B-12-12-12-12-12-10-10-8---8-10-8-10-8-7-7-5-5-5
G-----------------------------------------------
D-----------------------------------------------
A-----------------------------------------------
E-----------------------------------------------

  C                    D
E-12-12-12-12-12-10-10----
B-13-13-13-13-13-12-12-13-
G----------------------14-
D-------------------------
A-------------------------
E-------------------------

       C                             G            G
E----12-10---12-10---12-10---12-10---10---12-10---10
B---12----12------12------12------12-12--------12-12
G--12--------------------------------12-----------12
D---------------------------------------------------
A---------------------------------------------------
E---------------------------------------------------
G
Nunca habia perdido en el amor
                   G
Siempre de alguna forma
    Em           D
Me salia con la mia
 C         D
Hoy soy perdedor
        C                      G
Estoy llorando y llorar yo no sabia

G
Nunca habia perdido en el amor
             G
Nunca habia rodado
      Em           D
Tan abajo con mi orgullo
 C          D
Hoy soy perdedor
          C                        G
Estoy llorando y ese milagrito es tuyo

      (Coro 1)
 G
Duele mucho duele tanto
               Em
Duele ser el perdedor
 C                   D
Pero lo que mas me duele
    C             G
Es vivir sin tu amo0r

      (Coro 2)
 G
Duele mucho duele el alma
                  Em
Duele tanto el corazon
C                 D
Y con mi dolor y todo
      C            G
Te agradezco la leccion

    rekinto0

  G                                        Em
E-10-10-10-10-10-8- 8- 7---7-8- 7-8- 7-5-5-3-3-3
B-12-12-12-12-12-10-10-8---8-10-8-10-8-7-7-5-5-5
G-----------------------------------------------
D-----------------------------------------------
A-----------------------------------------------
E-----------------------------------------------

  C                    D
E-12-12-12-12-12-10-10----
B-13-13-13-13-13-12-12-13-
G----------------------14-
D-------------------------
A-------------------------
E-------------------------

       C                             G            G
E----12-10---12-10---12-10---12-10---10---12-10---10
B---12----12------12------12------12-12--------12-12
G--12--------------------------------12-----------12
D---------------------------------------------------
A---------------------------------------------------
E---------------------------------------------------

G
Nunca habia perdido en el amo0r
                G
Siempre habia cortado
         Em         D
De esta vida las maduras
 C         D
Hoy soy perdedor
         C                     G
Estoy llorando mi dolor mis amarguras

        (coro 1)
..........
........
         (coro 2)
.........
...........

 pz aki estamos kn esta kancio0n k la verdad
a mi me enkanta
po0r k me keda el nombre
soy un perdedor
y no nada mas en el amo0r
no0 la dediko por k para mi es una derrota
y pz mejo0r no0
si tuve algun herror aganmelo saber a mi msn
car_losen_rik......
tkm iia lo sabes TKM Y SIEMPRE TE KERRE
AUNK NO ME KORRESPONDAZ
Suggest correction
Give kudos to tab author, rate the tab!
1 2 3 4 5
comments
print report bad tab
guest
You may want to rate the tab now too:
select rating
Wanna post a correction for this tab? Suggest correction