Oops, an error
Loading. Please wait.

El Pirata Tab

110 views 1 this week
no commentswrite comment
1 2 3 4 5
3 more votes to show rating
add to favorites
launch autoscroll
font size
0
reset
how to read this tab
guitar tuner
×
Best way to learn
"El Pirata"
Autoscroll
slow
fast
+/-
esc
set tempo
stop
Esta cancón es una de mis preferidas y 
la quiero dedicar a una persona muy especial:

        'Raquel Herrera L.'
              T.Q.M. 


Intro... (se acompaña con: C,F,G y C)

                 F
Tu, ese sueño ideal,
               G
esa gloria que a mi,
         C
la vida me negó.
                 
                   F
Yo, el pirata de amor,
                  G
que en un mar de dolor,
          C
mi barca naufragó.
                                  
                                   Dm
Yo del amor el pirata, yo lobo de mar,
 G                                    C
he fracasado intentando a tu playa llegar,
 Am                                    Dm
yo cerrajero infalible, hasta esta ocasión.
 G                                  C
no pude encontrar la llave de tu corazón.


Verso con requinto:

                                                       F
'Un día, escuché tu nombre en una canción del viento
 G
 y me llené los pulmones y te atoraste en mi adentro
                                                
 por eso sé que eres mía y contigo voy y vengo
 C
 y aunque el mundo se ría... de alguna forma te tengo'.


                F
Tu, ese sueño ideal,
             G
de mi noche sin luz
          C
mi luna efímera.

                F
Yo, lastimera pasión,
            G
pregonera canción,
              C
que acaba en sátira.

                                  Dm
Yo del amor el pirata, yo lobo de mar
 G                                     C
he fracasado intentando a tu playa llegar,
 Am                                    Dm
yo cerrajero infalible, hasta esta ocasión,
 G                                  C
no pude encontrar la llave de tu corazón.


-- Se rasguean 5 veces hacia abajo en
   G# como preparación para caer a C# --

 C#                                D#m
Yo del amor el pirata, yo lobo de mar
 G#                                    C#
he fracasado intentando a tu playa llegar,
 A#m                                 D#m
yo cerrajero infalible, hasta esta ocasión,
 G#                                    C#
no pude encontrar la llave... de tu corazón.


       ^     Rasgueo hacia arriba con el dedo índice o medio.
       |  =  (Únicamente las cuerdas marcadas con las lineas
       |     verticales. La punta de la flecha no cuenta: ^ ).


       ^  =  Deslizar (Cuando aparezca sola).


Intro: 

E |-------------------------------------------------------------------------|
A |-------------------------------------------------------------------------|
D |-------------------------------------------------------------------------|
g |-------------------------------------------------------------------------|
b |-------------------------------------------------------------------------|
e |-12--10--12--12p-10-^-8--8--8--10--12--13--15--12--13--15--12--13p-12^10-|


E |-------------------------------------------------------------------------|
A |-------------------------------------------------------------------------|
D |-------------------------------------------------------------------------|
g |-5-5^6^5^4--4-------------------------------------^---^---^------9----^--|
b |---------------8--8---8--8--8---8--8-^-6---6--6--5|--3|--1|----8-----8|--|
e |---------------7--7---7--7--7---7--7-^-5---5--5--3|--1|--0|----------8|--|


Requinto del verso:

E|--------------------------------------------------------------------------|
A|--------------------------------------------------------------------------|
D|--^---^---^---^---^---^---^---^---^----^----^---^----^----^---^--------^--|
g|-9|--7|--9|--7|--5|--5|--5|--7|--9|--10|--12|--9|--10|--12|--9|--10^--7|--|
b|-8|--6|--8|--6|--5|--5|--5|--6|--8|--10|--12|--8|--10|--12|--8|--10^--6|--|
e|--------------------------------------------------------------------------|


E |-------------------------------------------------------------------------|
A |-------------------------------------------------------------------------|
D |-------------------------------------------------------------------------|
g |-5-5^6^5^4--4-------------------------------------^---^---^------9----^--|
b |---------------8--8---8--8--8---8--8-^-6---6--6--5|--3|--1|----8-----8|--|
e |---------------7--7---7--7--7---7--7-^-5---5--5--3|--1|--0|----------8|--|


Acordes:

      C#   D#m  G#   A#m                                
E |----4----6----4----6----|
A |----4----6----6----8----|
D |----6----8----6----8----|
g |----6----8----5----6----|
b |----6----7----4----6----|
e |----4----6----4----6----|


Cualquier duda o comentario por favor escribirme a:

                 edsel_rhl@

                   'Hasta la próxima'
Suggest correction
Give kudos to tab author, rate the tab!
1 2 3 4 5
comments
print report bad tab
guest
You may want to rate the tab now too:
select rating
Wanna post a correction for this tab? Suggest correction