Oops, an error
Loading. Please wait.

El Pisoton Tab

22 views 1 this week
no commentswrite comment
1 2 3 4 5
3 more votes to show rating
add to favorites
launch autoscroll
font size
0
reset
how to read this tab
guitar tuner
×
Best way to learn
"El Pisoton"
Autoscroll
slow
fast
+/-
esc
set tempo
stop
BUENO CHAVOS ESTA ROLA ME AGRADO POR EL RITMO QUE TIENE..
ESTA ALGO RAPIDA... PERO NO DEJA DE SER FACIL...


1.|----------------------------------------|
2.|---4-6---4-6---4-6---4-6-4--------------|
3.|-6-----6-----6-----6-------6-5----------|
4.|----------------------------------------|
5.|----------------------------------------|
6.|----------------------------------------|


1.|--4---4--(4-4-4)*--6-4------------------|
2.|----4------------------7-6-4------------|
3.|-----------------------------5----------|
4.|----------------------------------------|
5.|----------------------------------------|
6.|----------------------------------------|

()* TODO ES UN RAPIDO MOV. PARECIDO A TOCAR UNA MANDOLINA
    SE TOCA ASI:  ABAJO, ARRIBA, ABAJO..


1.|--4---4--(4-4-4)*--6-4------------------|
2.|----4------------------7-6-4------------|
3.|-----------------------------6----------|
4.|----------------------------------------|
5.|----------------------------------------|
6.|----------------------------------------|
Suggest correction
Give kudos to tab author, rate the tab!
1 2 3 4 5
comments
print report bad tab
guest
You may want to rate the tab now too:
select rating
Wanna post a correction for this tab? Suggest correction