Oops, an error
Loading. Please wait.

El Primer Tonto Tab

version 1
version 1

Whole song

558 views 9 this week
no commentswrite comment
1 2 3 4 5
2 more votes to show rating
add to favorites
launch autoscroll
font size
0
reset
how to read this tab
guitar tuner
×
Best way to learn
"El Primer Tonto"
Autoscroll
slow
fast
+/-
esc
set tempo
stop
bueno ps ya note que esta la tablatura pero le falta algo
que no escucharon los demas y asi no suena igual,ESPERO LES GUSTE

 e|-----------0-------------2--2-4-55/4--444/2--222--0---|
 B|-0/2-2-0---2---0/2-2-0---3--3-5-77/5--555/3--333-20/2-|
 G|---------2-2-----------2-2-----------------------2----|
 D|------------------------------------------------------|
 A|------------------------------------------------------|
 E|------------------------------------------------------|

               la unica diferencia aqui es q esun
               poco mas rapido(y el final claro)
 e|-----------0------------2--2-4-55/4-444-22-0---------|
 B|-0/2-2-0---2--0/2-2-0---3--3-5-77/5-555-33-2---------|
 G|---------2-2----------2-2------------------2---------|
 D|-----------------------------------------------------|
 A|-----------------------------------------------------|
 E|-----------------------------------------------------|


                   A              F#m
  e|--------0---------------------2---------|
  B|----------------------------------------|
  G|------2---------------------------------|
  D|----2-----------------------4-----------|
  A|--0-----------------------4-------------|
  E|------------------------2---------------|
  Que no te habran dicho   que no te habran dado

          D                 E
  e|-------2------------------0----00--------|
  B|-----3-------------------------00--------|
  G|---2---------------------------11--------|
  D|-0---------------------2-------22--------|
  A|---------------------2---------22--------|
  E|-------------------0-----------00--------|

  di si hay un capricho  que no has realizdo

                   A              F#m
  e|--------0---------------------2---------|
  B|----------------------------------------|
  G|------2---------------------------------|
  D|----2-----------------------4-----------|
  A|--0-----------------------4-------------|
  E|------------------------2---------------|

  Di si hay un espacio  perdido en tus dias
         D                 E
  e|-------2-----------------0--(5-7-5-2)--|(ESTO ES OPCIONAL ASI
  B|-----3-------------------0-------------| APARECE EN LA CANCION)
  G|---2----2----------------1-------------|
  D|-0---------------------2---------------|
  A|---------------------2-----------------|
  E|-------------------0-------------------|

   yo quiero llenarlo con mis tonterias


              A
Quiero una respuesta
             F#m
y la quiero pronto
               D
dime si en tu vida
                 E  E7
has amado a otro tonto
               A
Dí que no mi amor
               F#m
dí que no por favor
           D
dí que al menos en eso
             E
el primero soy yo

           A                   F#m
El primer tonto de tu vida quiero ser
           D                      E
el primer tonto que te amó a tí mujer
           A                      F#m
el primer tonto ya será satisfacción
              D
de cuálquier modo
                E
ya te dí mi corazón.


Y YA SE REPITE TODO DESDE EL INTRO ESPERO Q LES HAYA GUSTADO
Y LES SIRVA MUY BUEN CANCIÓN POR SIERTO DE MIS FAVORITAS :)
VEAN MAS E MIS TRANSCRIPCIONES
Suggest correction
Give kudos to tab author, rate the tab!
1 2 3 4 5
comments
print report bad tab
guest
You may want to rate the tab now too:
select rating
Wanna post a correction for this tab? Suggest correction