Oops, an error
Loading. Please wait.

El Primer Tonto Chords

version 2
version 2

Whole song

146 views 1 this week
no commentswrite comment
1 2 3 4 5
2 more votes to show rating
add to favorites
launch autoscroll
font size
0
reset
transpose
0
reset
simplify chords
display chords
guitar tuner
×
Best way to learn
"El Primer Tonto"
Autoscroll
slow
fast
+/-
esc
set tempo
stop
Esta rola se escucha mejor en circulo de LA como 
la canta jOAN SEBASTIAN !!!!

INTRODUCCION!!! (REQUINTO)

             A             Fm                      
e---------------------------2---2-4-5-5-4-4-2-2-0-0-------0------------------
B--2-2-0---2---2-2-0--------2---3-5-7-7-5-5-3-3-2-2-3-2-3-2------------------
G--2-----2-2---2-----2------2-----------------------4-2-4--------------------
D----------2----------------4------------------------------------------------
A---------------------------4------------------------------------------------
E---------------------------2------------------------------------------------
  
   

             A             Fm                      
e---------------------------2---2-4-5-5-4-4-2-2-0-0--------------------------
B--2-2-0---2---2-2-0--------2---3-5-7-7-5-5-3-3-2-2-3-2-3-2------------------
G--2-----2-2---2-----2------2-----------------------4-2-4-2------------------
D----------2----------------4------------------------------------------------
A---------------------------4------------------------------------------------
E---------------------------2------------------------------------------------
  
   
 
                         A 
Que no te habran dicho 
                          Fm 
que no te habran dado 
                      Bm
dí si hay un capricho 
                       E7 
que no has realizado 

                 A
Di si hay un espacio 
                    Fm
perdido en tus días 
           Bm             E7             
para llenarlo con mis tonterias 
  

              A                
Quiero una respuesta (quiero una respuesta) 
              Fm
y la quiero pronto (y la quiero pronto) 
               Bm
dime si en tu vida 
                E7
has amado a otro tonto 
               A
Dí que no mi amor (di que no mi amor) 
               Fm   
dí que no por favor (di que no por favor) 
                 Bm
dí que al menos en eso 
               E7  
el primero soy yo 

           A                       Fm 
El primer tonto de tu vida quiero ser 
           Bm                     E7
el primer tonto que te amó a tí mujer 
           A                      Fm 
el primer tonto ya será satisfacción 
              Bm 
de cuálquier modo 
                E7
yo te dí mi corazón. 


Dedicada para: 3M(MMM) saludos amiguita!!!!
Suggest correction
Give kudos to tab author, rate the tab!
1 2 3 4 5
comments
print report bad tab
guest
You may want to rate the tab now too:
select rating
Wanna post a correction for this tab? Suggest correction