Oops, an error
Loading. Please wait.

El Primer Tonto Tab

version 2
version 2

Whole song

79 views 1 this week
no commentswrite comment
1 2 3 4 5
3 more votes to show rating
add to favorites
×
Save as Personal and add changes to this tab that will be seen only by you. Learn more ›
×
You can save this tab as Personal to edit and correct it or add notes. All changes will be seen only by you. Learn more »
save as personal
new!
launch autoscroll
font size
0
reset
how to read this tab
guitar tuner
Autoscroll
slow
fast
+/-
esc
set tempo
stop
BUENO AMIGOS YO LES DEJO ESTA CANCION ESPERO QUE LES GUSTE ESTA MUY
BUENA PARA DEDICAR A UNA PERSONA ESPECIAL ESPERO LES AGRADE
ESPERO COMENTARIOS  CUIDENSE Y HATA LA
PROXIMA
LES DEJO EL RASGUEO
B= BAJO
*= ARRIBA
V= ABAJO

   B        B   B     B
e-------*-----------*----
B-----|-|-|--|----|-|-|-|
G-----|-|-|--|----|-|-|-|
D-----|-|-|--|----|-|-|-|
A-----|-|-|--|----|-|-|-|
E-----|-|-|--|----|-|-|-|
     v   v  v   v   v v

e--------------0-0-----------------0-0-----2-4-5-5-4--4-2-2-0--0-0-0---
B-0/2-2-0----2-2-2----0/2-2-0---2--2-2-----3-5-7-7-5--5-3-3-2--2-0-2--2
G----------2-2----------------2-2-------------------------------------2
D----------------------------------------------------------------------
A----------------------------------------------------------------------
E----------------------------------------------------------------------


e--------------0-0-----------------0-0-----2-4-5-5-4--4-2-2-0--0-0---0
B-0/2-2-0----2-2-2----0/2-2-0---2--2-2-----3-5-7-7-5--5-3-3-2--2-0---2
G----------2-2----------------2-2------------------------------------2
D--------------------------------------------------------------------2
A--------------------------------------------------------------------0
E--------------------------------------------------------------------0


                  A
Que no te habran dicho
                  A7
que no te habran dado
                 D
dí si hay un capricho
                E7
que no has realizado

                 A
Di si hay un espacio
                A7
perdido en tus días
         D         E7
para llenarlo con mis tonterias


              A
Quiero una respuesta
              A7
y la quiero pronto
               D
dime si en tu vida
                E7
has amado a otro tonto
               A
Dí que no mi amor
               A7
dí que no por favor
                 D
dí que al menos en eso
               E7
el primero soy yo

           A                       A7
El primer tonto de tu vida quiero ser
           D                    E7
el primer tonto que te amó a tí mujer
           A                      A7
el primer tonto ya será satisfacción
              D
de cuálquier modo
                E7
yo te dí mi corazón.


e--------------0-0-----------------0-0-----2-4-5-5-4--4-2-2-0--0-0-0---
B-0/2-2-0----2-2-2----0/2-2-0---2--2-2-----3-5-7-7-5--5-3-3-2--2-0-2--2
G----------2-2----------------2-2-------------------------------------2
D----------------------------------------------------------------------
A----------------------------------------------------------------------
E----------------------------------------------------------------------


e--------------0-0-----------------0-0-----2-4-5-5-4--4-2-2-0--0-0---0
B-0/2-2-0----2-2-2----0/2-2-0---2--2-2-----3-5-7-7-5--5-3-3-2--2-0---2
G----------2-2----------------2-2------------------------------------2
D--------------------------------------------------------------------2
A--------------------------------------------------------------------0
E--------------------------------------------------------------------0


                  A
Que no te habran dicho
                  A7
que no te habran dado
                 D
dí si hay un capricho
                E7
que no has realizado

                 A
Di si hay un espacio
                A7
perdido en tus días
         D         E7
para llenarlo con mis tonterias


              A
Quiero una respuesta
              A7
y la quiero pronto
               D
dime si en tu vida
                E7
has amado a otro tonto
               A
Dí que no mi amor
               A7
dí que no por favor
                 D
dí que al menos en eso
               E7
el primero soy yo

           A                       A7
El primer tonto de tu vida quiero ser
           D                    E7
el primer tonto que te amó a tí mujer
           A                      A7
el primer tonto ya será satisfacción
              D
de cuálquier modo
                E7
yo te dí mi corazón.


e-------------------0-
B-0/2-2-0---2-------2-
G---------2-2-------2-
D-------------------2-
A-------------------0-
E-------------------0-
Suggest correction
Give kudos to tab author, rate the tab!
1 2 3 4 5
comments
print report bad tab
guest
Wanna post a correction for this tab? Suggest correction