Oops, an error
Loading. Please wait.

El Primer Tonto Tab

version 3
version 3

Whole song

76 views 1 this week
no commentswrite comment
1 2 3 4 5
3 more votes to show rating
add to favorites
×
Save as Personal and add changes to this tab that will be seen only by you. Learn more ›
×
You can save this tab as Personal to edit and correct it or add notes. All changes will be seen only by you. Learn more »
save as personal
new!
launch autoscroll
font size
0
reset
how to read this tab
guitar tuner
Autoscroll
slow
fast
+/-
esc
set tempo
stop
Bueno pues esta es la version que toca joan sebastian
en el auditorio, esta armonizada en La mayor
disfrutenla y califiquen

          A             F#m
e--0-0-0-0---0--0-0-0---2---2-4-5-5-4--4-2-2-0--0-0-0---0
B--2-2-2-0-2-2--2-2-0-2-2---3-5-7-7-5--5-3-3-2--2-0-2-2-2
G--2-------2----------2-2-----------------------------2--
D--2--------------------4--------------------------------
A--0--------------------4--------------------------------
E--0--------------------2--------------------------------

          A           F#m
e--0-0-0---0--0-0-0---2---2-4-5-5-4--4-2-2-0--0-0-0-
B--2-2-0-2-2--2-2-0-2-2---3-5-7-7-5--5-3-3-2--2-0-2-
G--------2----------2-2---------------------------2-
D---------------------4---------------------------2-
A---------------------4---------------------------0-
E---------------------2---------------------------0-


                  A
Que no te habran dicho
                  F#m
que no te habran dado
                 D
dí si hay un capricho
                E
que no has realizado

                 A
Di si hay un espacio
                F#m
perdido en tus días
         D         E
para llenarlo con mis tonterias


              A
Quiero una respuesta
              F#m
y la quiero pronto
               D
dime si en tu vida
                E
has amado a otro tonto
               A
Dí que no mi amor
               F#m
dí que no por favor
                 D
dí que al menos en eso
               E
el primero soy yo

           A                       F#m
El primer tonto de tu vida quiero ser
           D                    E
el primer tonto que te amó a tí mujer
           A                      F#m
el primer tonto ya será satisfacción
              D
de cuálquier modo
                E
yo te dí mi corazón.


         A            F#m
e--0-0-0---0--0-0-0---2---2-4-5-5-4--4-2-2-0--0-0-0---0
B--2-2-0-2-2--2-2-0-2-2---3-5-7-7-5--5-3-3-2--2-0-2-2-2
G--------2----------2-2-----------------------------2--
D---------------------4--------------------------------
A---------------------4--------------------------------
E---------------------2--------------------------------

         A            F#m
e--0-0-0---0--0-0-0---2---2-4-5-5-4--4-2-2-0--0-0-0-
B--2-2-0-2-2--2-2-0-2-2---3-5-7-7-5--5-3-3-2--2-0-2-
G--------2----------2-2---------------------------2-
D---------------------4---------------------------2-
A---------------------4---------------------------0-
E---------------------2---------------------------0-


                  A
Que no te habran dicho
                  F#m
que no te habran dado
                 D
dí si hay un capricho
                E
que no has realizado

                 A
Di si hay un espacio
                F#m
perdido en tus días
         D         E
para llenarlo con mis tonterias


              A
Quiero una respuesta
              F#m
y la quiero pronto
               D
dime si en tu vida
                E
has amado a otro tonto
               A
Dí que no mi amor
               F#m
dí que no por favor
                 D
dí que al menos en eso
               E
el primero soy yo

           A                       F#m
El primer tonto de tu vida quiero ser
           D                    E
el primer tonto que te amó a tí mujer
           A                      F#m
el primer tonto ya será satisfacción
              D
de cuálquier modo
                E
yo te dí mi corazón.

      A
e--0-0-0---0-
B--2-2-0-2-2-
G--------2-2-
D----------2-
A----------0-
E----------0-
Suggest correction
Give kudos to tab author, rate the tab!
1 2 3 4 5
comments
print report bad tab
guest
Wanna post a correction for this tab? Suggest correction