Oops, an error
Loading. Please wait.

El Taxista Tab

116 views 1 this week
no commentswrite comment
1 2 3 4 5
3 more votes to show rating
add to favorites
launch autoscroll
font size
0
reset
how to read this tab
guitar tuner
×
Best way to learn
"El Taxista"
Autoscroll
slow
fast
+/-
esc
set tempo
stop
Es más difícil encontrar la información de la canción que la misma
transcripción para guitarra. El compositor es sin duda Joan Sebastian
de acuerdo con la Sociedad de Autores y Compositores de México [SACM]
y aunque al igual que mucha gente me topé con esta rolita al descargarla
de un programa P2P no he podido encontrar el álbum en donde viene incluída.
Los Dinnos Aurios hicieron un cover en el álbum Amor (1995) pero creo
que Joan Sebastian lanzó el tema suelto puesto que no lo encontré
en ningun álbum ni compilatorio listado en su propia discografía. Bueno,
así va la canción:


(Intro)

            B
e. ----------------------------------------|
B. ------------5/7~--9/7-5-5/7~------------|
G. ----------------------------------------|
D. ----------------------------------------|
A. -----2-4-2-----------------------2-4-2--|
E. -2-4-------------------------2-4--------|


  B                          E
?Saben, tuve tantos trabajos
                                  B
fuí lavaplatos, mesero y cocinero
                                    F#
peón y albañil, ayudante de mecánica

un mil usos cualquiera
                       B
pero ahora les quiero contar de cuando era taxista

un día me abordó un muchacho y dijo:?


    B
e. ---------------------------|
B. --14b16-14b16-14b16-14-12--|
G. *-------------------------*|
D. *-------------------------*|X2
A. ---------------------------|
E. ---------------------------|


(Verso)


 B                    C#m
Hey chofer, písele al gas
                               B
tanto sin verla ya no aguanto más
             C#m
párese por favor
                               B
voy a comprar flores para mi amor.
e. --------------------------------------|
B. ----------------------------5/7-5-5/7-|
G. ----------------------------6/8-6-6/8-|
D. --------------------------------------|
A. --------------------------------------|
E. --------------------------------------|


(Coro)


    B      E
Y fuí manejando
e. ----------4--4--4--6--7--7---9--7-|
B. ---------5--5--5--7--9--9--11--9--|
G. ----------------------------------|
D. ----------------------------------|
A. ----------------------------------|
E. ----------------------------------|
      B
a su mando
e. ----------------|
B. -----7h9--7---7-|
G. ----8----8---8--|
D. ------------9---|
A. ----------------|
E. ----------------|
   B                    E
seguí, sí, sí, sí, manejando
e. ------------------------------------------------|
B. --------------------------------------2-4-4-5---|
G. --------------------------------1-3-4-----------|
D. --------------------------1-2-4---------------6-|
A. ----------------------2-4-----------------------|
E. ------------------------------------------------|
         B
y él silbando.
e. -----------------------------|
B. -----------------------------|
G. ------4p3--------------------|
D. ----------6p4----------------|
A. --------------4h6------2-4-2-|
E. -------------------2-4-------|


      B                            E
?En cuanto llegamos a la dirección

me dijó que esperara y corrió a buscarla
                       F#
después de unos minutos

aquel león que llebaba yo de pasajero
     B
regresó convertido en el más pequeño ratón y me dijo:?
e. --------------------------------------------------|
B. -14b16-14b16-14b16-14-12--14b16-14b16-14b16-14-12-|
G. --------------------------------------------------|
D. --------------------------------------------------|
A. --------------------------------------------------|
E. --------------------------------------------------|


(Verso)


 B                    C#m
Hey chofer, dele otra vez
                           B
me equivoqué esta calle no es
              C#m
dígame a que lugar
                              B
lejos de aquí vaya sin preguntar.
e. -------------------------------|
B. ---------------------------5/7-|
G. ---------------------------6/8-|
D. -------------------------------|
A. -------------------------------|
E. -------------------------------|


(Coro)


    B      E
Y fuí manejando
e. ----------4--4--4--6--7--7---9--7-|
B. ---------5--5--5--7--9--9--11--9--|
G. ----------------------------------|
D. ----------------------------------|
A. ----------------------------------|
E. ----------------------------------|
                          B
y él llorando con sus flores
e. ------7--9p7--6------------------------|
B. -----9--9----7--9--9-----7--5--5h7p5---|
G. ----------------9-9-----8--6--6------8-|
D. ---------------------------------------|
A. ---------------------------------------|
E. ---------------------------------------|
   B                    E
seguí, sí, sí, sí, manejando
e. ----------------------------------------------|
B. --------------------------------------2-4-5---|
G. --------------------------------1-3-4---------|
D. --------------------------1-2-4-------------6-|
A. ----------------------2-4---------------------|
E. ----------------------------------------------|
                      B
y él tirando lindas flores.
e. ----------------------------------|
B. --------5-4-5---------------------|
G. ----------------------4p3---------|
D. ------6-------6-----------6-4-----|
A. ------------------------------4h6-|
E. ----------------------------------|


(Solo)


*Gtra. Eléctrica:

     B                                               C#m
e. ------------------------------------------------------------|
B. -14b16-(16)-14b16-(16)-14b16-(16)-14b16-(16)r14-12-14-12----|
G. ---------------------------------------------------------13~|
D. ------------------------------------------------------------|
A. ------------------------------------------------------------|
E. ------------------------------------------------------------|


*Gtra. Acústica:

    C#m
e. --------------------------------|
B. -------------11-12-14-16-17-----|
G. ------8-9-11----------------13~-|
D. -9-11---------------------------|
A. --------------------------------|
E. --------------------------------|


*Gtra. Eléctrica:

    C#m                                              B
e. -----------------------------------------------------------|
B. -12b14-(14)-12b14-(14)-12b14-(14)-12b14-(14)r12-9-12-9-----|
G. -------------------------------------------------------11~-|
D. -----------------------------------------------------------|
A. -----------------------------------------------------------|
E. -----------------------------------------------------------|


*Gtra. Acústica:

    B
e. ----------------------11-12-11-14~-|
B. -------------11-12-14--------------|
G. ------8-9-11-----------------------|
D. -9-11------------------------------|
A. -----------------------------------|
E. -----------------------------------|


(Coro)


    B      E
Y fuí manejando
e. ----------4--4--4--6--7--7---9--7-|
B. ---------5--5--5--7--9--9--11--9--|
G. ----------------------------------|
D. ----------------------------------|
A. ----------------------------------|
E. ----------------------------------|
                          B
y él llorando con sus flores
e. -------6--7h9p7--6---------------------|
B. ------7--9------7---9----7--5--5h7p5---|
G. -------------------9----8--6--6------8-|
D. ---------------------------------------|
A. ---------------------------------------|
E. ---------------------------------------|
   B                    E
seguí, sí, sí, sí, manejando
e. ----------------------------------------------|
B. --------------------------------------2-4-5---|
G. --------------------------------1-3-4---------|
D. --------------------------1-2-4-------------6-|
A. ----------------------2-4---------------------|
E. ----------------------------------------------|
                      B
y él tirando lindas flores.
e. --------------------------------|
B. ----------4-5-4-----------------|
G. --------------------4p3---------|
D. ------6-6------6--------6-4-----|
A. ----------------------------4h6-|
E. --------------------------------|


(Outro)


*Gtra. Eléctrica:

?Ohhhh...?

     B                                               C#m
e. ------------------------------------------------------------|
B. -14b16-(16)-14b16-(16)-14b16-(16)-14b16-(16)r14-12-14-12----|
G. ---------------------------------------------------------13~|
D. ------------------------------------------------------------|
A. ------------------------------------------------------------|
E. ------------------------------------------------------------|


*Gtra. Acústica:

    C#m
e. -------------------------------------|
B. -------------11-12-14-16-17-16-17-19-|
G. ------8-9-11-------------------------|
D. -9-11--------------------------------|
A. -------------------------------------|
E. -------------------------------------|


*Gtra. Eléctrica:

?Ohhhh...?

    C#m                                              B
e. -----------------------------------------------------------|
B. -12b14-(14)-12b14-(14)-12b14-(14)-12b14-(14)r12-9-12-9-----|
G. -------------------------------------------------------11~-|
D. -----------------------------------------------------------|
A. -----------------------------------------------------------|
E. -----------------------------------------------------------|
                                                        (Fade Out)


Espero que no se les haya hecho muy confusa con tanto punteo de
guitarra eléctrica y acústica. Quiero dedicar esta transcripción a mi
amigo Josue (el Toro) porque algun día dijó que a lo mejor se metía de
taxista por la situación económica jeje. Saludos a los taxistas, algunos
muy culeros pero otros a toda madre como mi don Fidel ^_^


*Dudas, sugerencias o información del tema a mi e-mail: gerewalsh@
Suggest correction
Give kudos to tab author, rate the tab!
1 2 3 4 5
comments
print report bad tab
guest
You may want to rate the tab now too:
select rating
Wanna post a correction for this tab? Suggest correction