Oops, an error
Loading. Please wait.

Encarcelamiento Tab

67 views 1 this week
no commentswrite comment
1 2 3 4 5
3 more votes to show rating
add to favorites
launch autoscroll
font size
0
reset
how to read this tab
guitar tuner
×
Best way to learn
"Encarcelamiento"
Autoscroll
slow
fast
+/-
esc
set tempo
stop
ASI ES COMO LA TOCA JOAN SEBASTIAN_ EN EL AUITORIO NACIONAL.

D                        G           D    G  D
Dicen en el pueblo que debían dictarle
D                    G     A7
Encarcelamiento a perpetuidad
G              A7                       D
Por que se enteraron que el ama a una niña
              G                A7
De diecisiete años que mejor edad.

4.-------------------------------
5.--0---2---4--------------------
6.-------------------------------

D                          G          D    G  D
Dicen que las leyes debían sentenciarlo
D                           G      A7
Por que esta casado y no la debe amar
G              A7                  D
Y que solo el cielo podría perdonarlo
                  G                   A7
Por que solo el cielo lo ha visto llorar.

Coro:
            G
El es un loco,

1.-----------0---------------------------
2.--3--2--3-----3--2--0------------------
3.----------------------2----------------
             D
y ella una niña

1.--2--3--7--5--3--2---------------------
2.--3--5--8--7--5--3---------------------
3.---------------------------------------
                   A7                    D  D7
Que juega a ser mujer que juega a ser mujer
           G
El es un loco,
1.--------------0------------------------
2.-----3--2--3-----3--2--0---------------
3.--2-----------------------2------------
             D
y ella una niña
1.--2--3--7--5--3--2---------------------
2.--3--5--8--7--5--3---------------------
3.---------------------------------------
                 A7             D
Culpable de embrujar al loco aquel.


INTERMEDIO:

    D                  G        D
1.-2-2-2-2-2-----0--2--3--7--5-----------
2.------------3-----------------3--------
3.---------------------------------------
               G               D
1.--10--9--7--10--10--9--7--5--9--9------
2.---------------------------------------
3.---------------------------------------
                   G        A7   D
1.--2--2--2--0--2--5--3--2--0------------
2.-------------------------------3-------
3.---------------------------------------

D                       G          D    G  D
Dicen pueblo chico es infierno grande
D                              G     A7
Dicen que es un diablo y lo quieren bañar
G             A7                D
Con agua bendita para que se olvide
             G              A7
De la mas bonita de aquel lugar

Coro:
          G

El es un loco,
1.-----------0-------------------------
2.--3--2--3-----3--2--0----------------
3.----------------------2--------------
             D
y ella una niña

1.--2--3--7--5--3--2-------------------
2.--3--5--8--7--5--3-------------------
3.-------------------------------------
                   A7                  D
Que juega a ser mujer que juega a ser mujer
          G                D
El es un loco, y ella una niña
                  A7            D
Culpable de embrujar al loco aquel.

FINAL:

1.--2-2-2-2-2-----0--2--3--2---2---------
2.-------------3---------------3---------
3.-----------------------------2---------
4.-----------------------------0---------
5.-----------------------------0---------
6.-----------------------------0---------
Suggest correction
Give kudos to tab author, rate the tab!
1 2 3 4 5
comments
print report bad tab
guest
You may want to rate the tab now too:
select rating
Wanna post a correction for this tab? Suggest correction